» » »

Derek And The Dominos - Little Wing Tabs

Artists:  A B C D E F G H I J K L M N O P Q R S T U V W X Y Z # 

Little Wing Tabs

(ver. 2) Click to play this song!
Derek And The Dominos
 Rating:
4/5 (4 votes)

 Little Wing lessons Tabs too difficult? Try these video lessons and learn fast
 
                Gtr I (E A D G B E) - 'Eric Clapton - Electric Guitar'
Gtr II (E A D G B E) - 'Duane Allman - Electric Guitar'


   Intro 1
    Q=67
    E                        F#m      D      E
   2/4
    Gtr I
    E.  T T E.  T T   E.      T  T  S T T  S T T  3x H      +H
||--7---7-7-7---7-7-|-7-------9--9--9-5-5--5-7-7--||-7----|-(7)----||
||o-9---9-9-9---9-9-|-9------10-10-10-7-7--7-9-9-o||-9----|-(9)----||
||--9---9-9-9---9-9-|-9------11-11-11-7-7--7-9-9--||-9----|-(9)----||
||------------------|-----------------------------||------|--------||
||o-----------------|----------------------------o||------|--------||
||------------------|-----------------------------||------|--------||
|
|   Gtr II
|   E..   T E..   T   T  E..        e      e      3x H      +H
||------------------|-----------------------------||-4----|-(4)----||
||o-9-----9-9-----9-|-9--9---------10-----10-----o||-5----|-(5)----||
||--9-----9-9-----9-|-9--9---------11-----11------||-4----|-(4)----||
||--9-----9-9-----9-|-9--9---------11-----11------||-6----|-(6)----||
||o-----------------|----------------------------o||------|--------||
||------------------|-----------------------------||------|--------||


 Intro 2
  F#m
 4/4
             ~
   E     +E  Q   E    E  E    E
|---------------------------------|
|-10b12r(10)-7---7----9-------7---|
|------------------------9--------|
|---------------------------------|
|---------------------------------|
|---------------------------------|
|
|  Q         Q  +E  a E  S  S S S
|-^2------------------------------|
|-^2------------------2-(2)-------|
|-^2------------------2--2--------|
|-^4----------------2h4--2--2-----|
|-^4---------4--(4)-----------4p2-|
|---------------------------------|


  A                             Bm7
  ~                             ~     ~~~~~~~~~~
  H         E   E   E   E     a Q   a Q      Q     E    E
|---------------------------|------------------------------|
|-------------------5---7---|-5s7---7s9-----10----10s==12--|
|-6---------6---7-----------|------------------------------|
|---------------------------|------------------------------|
|---------------------------|------------------------------|
|---------------------------|------------------------------|
|
| E E E S S S S S S S S S S   a E E   S E S  E. S  S S  E
|---------------------------|------------------------------|
|---------------------------|------------------------------|
|-----2-------------------2-|-2h4-----2------2-----2-------|
|---2-------5s4-2-----2-4-2-|-----4-----4-4-----4----4-----|
|-0-----0-0-------2h4-------|---2-----------------------2--|
|---------------------------|------------------------------|


  F#m7
          ~~~~                  ~~~~
   S     +E.    E     E  S     +E.      S      +S   E
|--------------------12-------------------------------|
|-12b14-(12)---12b14----12b14-(12)-----12pb14r(12)-10S|
|-----------------------------------------------------|
|-----------------------------------------------------|
|-----------------------------------------------------|
|-----------------------------------------------------|
|
|  E         E  E     E  S      S  S S  S       S   E
|-----------------------------------------------------|
|-----------------------------------------------------|
|----------------------------------2-2----------------|
|---------------4------------------2-2--4p======2-----|
|------------4--------4--2------4-------------------4-|
|--2--------------------------------------------------|


  C#m7                                     Bm7              D
  ~                                         ~~~~~~~~~~~~~~~~~~~~~~~~~~~~
  Q   E    E      E     +E     E     E      Q      Q         Q        Q
|----------------------------------------|------------------------------------|
|-9---9---10-----10b12r(10)----9----10---|------------------------------------|
|----------------------------------------|-11-----13--------14-------16-------|
|----------------------------------------|------------------------------------|
|----------------------------------------|------------------------------------|
|----------------------------------------|------------------------------------|
|
| E E S S  S S a  E      S  S +S  S  S S    E S S +S  S S S  S S S S  S S S S
|----------------------------------------|----------------------------3-2-----|
|-------5----------------5---------------|------3-(3)---3------3---3--------3-|
|-----4------4-5s=6---------4-(4)--------|----2-------2------2------------2-2-|
|---6------6----------------------6--6s4-|----------------0--0---0--------0---|
|-4--------------------------------------|--2---------------------------------|
|----------------------------------------|------------------------------------|


  A                    G                    D
                                           2/4
   S  S  S  S  S S S S S S E   +E.      S    S  S  S  S  S S  S S
|-17s14-14s12-12s9-9s7-7s5-5---(5)s====17-|-17S14-14S12-12S9--9S7-|
|-----------------------------------------|-----------------------|
|-----------------------------------------|-----------------------|
|-----------------------------------------|-----------------------|
|-16s14-14s12-12s9-9s7-7s5-5---(5)s====17-|-17S14-14S12-12S9--9S7-|
|-----------------------------------------|-----------------------|
|
|  E     S  S  S S S S S S S S +S  S S  S    E     S  S  S E.
|----------------------------------3----3-|--2-----2-------2------|
|----------------------------0-(0)-0-0--0-|--3-----------3--------|
|--------2-------2---2-------0-(0)-0-0--0-|--2--------2-----------|
|-----------0--2---2-------0-0-(0)---0----|--4--------------------|
|--0---------------------2----------------|-----------------------|
|----------------------3------------------|-----------------------|


  E                        F#m      D      E
  E.  T T E.  T T   E.      T  T  S T T  S T T
|-7---7-7-7---7-7-|-7-------9--9--9-5-5--5-7-7-|
|-9---9-9-9---9-9-|-9------10-10-10-7-7--7-9-9-|
|-9---9-9-9---9-9-|-9------11-11-11-7-7--7-9-9-|
|-----------------|----------------------------|
|-----------------|----------------------------|
|-----------------|----------------------------|
|
| E..   T E..   T   T  E..        e      e
|-----------------|----------------------------|
|-9-----9-9-----9-|-9--9---------10-----10-----|
|-9-----9-9-----9-|-9--9---------11-----11-----|
|-9-----9-9-----9-|-9--9---------11-----11-----|
|-----------------|----------------------------|
|-----------------|----------------------------|


                  1st Verse
                   F#m
                  4/4
  H      +H        Q  E E  E     +E  S.   +T     +E
|-7----|-(7)----||-----------------------------------|
|-9----|-(9)----||------7-10b12r(10)-----------------|
|-9----|-(9)----||-------------------9b11r(9)b11-(9)-|
|------|--------||-----------------------------------|
|------|--------||-----------------------------------|
|------|--------||-----------------------------------|
|
| H      +H        Q  E E  Q         E            e
|-4----|-(4)----||-2--2------------------------------|
|-5----|-(5)----||-2--2--------------2---------------|
|-4----|-(4)----||-2--2--------------2---------------|
|-6----|-(6)----||-4--4-4------------4---------------|
|------|--------||-4--4----4---------4------------4--|
|------|--------||-2--2------------------------------|


  A                                        Bm7
                                              ~~~~~~~~~~
  E. S S  S S  S S  S S  S S    S   S  S   S  E.    +H.
|----------------------------------------|--------------------------|
|----------------------------------------|--------------------------|
|-9h11-9h11-9h11-9h11-9h11-9h==11p==9----|-9-11----(11)-------------|
|-------------------------------------11-|--------------------------|
|----------------------------------------|--------------------------|
|----------------------------------------|--------------------------|
|
|                          |--3---|
| E. S E    S  S S  S E    S S    S E      E     E   E  S S E E E E
|----------------------------------------|--------------------------|
|-2--------------------------------------|-----------3------3---3---|
|--------------2-----------2-------------|-------2---2------2-2-2-x-|
|-2h=4------2--------------2h4p===2------|-------4------4-4-4-4-4-x-|
|-0----0---------0--2-0-------------4----|-2----------------2---2---|
|----------------------------------------|--------------------------|


  F#m
                                               ~~
                |-----3------|              |3-|
  Q   E.     S  S     +S     S  S  S  S  S  S  E
|----12b14---x---------------------------------------|
|--------------12b14r(12)p==10-12----10h12-10h12-----|
|---------------------------------11-----------------|
|----------------------------------------------------|
|----------------------------------------------------|
|----------------------------------------------------|
|
| Q   E    S S  S         S     S  S  S  S  S    S
|-2--------------------------------------------------|
|-2--------------------------------------------------|
|-2---2-------------------------2--------------------|
|-4---4-------------------------2-----4--2-------2---|
|-4---4----4-4--2h========4--------4--------4--------|
|-2--------------------------------------------------|


  C#m7                Bm7         D
  ~
                                      |----3-----|
  W                   H            E  S     +S   S  S  S  E
|-------------------|-------------12------------------------|
|-9-----------------|----------------12b14r(12)p10-12----10-|
|-------------------|---------------------------------11----|
|-------------------|---------------------------------------|
|-------------------|---------------------------------------|
|-------------------|---------------------------------------|
|
| E E Q  E E E  E     E S S S S E  E  Q                   E
|-------------------|---------------------------------------|
|-----5------5-(5)\-|-----3--------3--3-------------------3-|
|---4-4--4-4-4-(4)\-|-----2---2----2--2-------------------2-|
|---6----6------6\--|---4---4---4--4--4-------------------4-|
|-4------4----------|-2-------------------------------------|
|-------------------|---------------------------------------|


  A                   G                          D
                                                2/4
   ~~
                       |---3---|
   Q      E       E    S      +E   E  E    E      E  E    Q
|----------------12----------------------------|---------------|
|-10-----12b14--------12pb14r(12)-10-10---12---|-12-10---10----|
|----------------------------------------------|---------------|
|----------------------------------------------|---------------|
|----------------------------------------------|---------------|
|----------------------------------------------|---------------|
|
|  E S S +S    S  S S  E           E  S S  S S    E  S S  E E
|----------------------------------3--3-3--3-3-|--2--2-2--2-2--|
|--2---2-(2)---2----2--------------0--0-0--0-0-|--3--3-3--3-3--|
|--2-2-2-(2)---2----2--0-----------0--0-0--0-0-|--2--2-2--2-2--|
|--2-2------------2----0-----------0--0-0--0-0-|--0--0-0--0-0--|
|--0--------------0----2-----------------------|---------------|
|----------------------3-----------------------|---------------|


  E                        F#m      D      E
  E.  T T E.  T T   E.      T  T  S T T  S T T
|-7---7-7-7---7-7-|-7-------9--9--9-5-5--5-7-7-|
|-9---9-9-9---9-9-|-9------10-10-10-7-7--7-9-9-|
|-9---9-9-9---9-9-|-9------11-11-11-7-7--7-9-9-|
|-----------------|----------------------------|
|-----------------|----------------------------|
|-----------------|----------------------------|
|
| E..   T E..   T   T  E..        e      e
|-----------------|----------------------------|
|-9-----9-9-----9-|-9--9---------10-----10-----|
|-9-----9-9-----9-|-9--9---------11-----11-----|
|-9-----9-9-----9-|-9--9---------11-----11-----|
|-----------------|----------------------------|
|-----------------|----------------------------|


                  2nd Verse
                   F#m
                  4/4
                                  ~~~~~~~~
  H      +H        Q  E  S  S  S  E.  +Q
|-7----|-(7)----||-------------------------|
|-9----|-(9)----||------10-12-12-12--(12)--|
|-9----|-(9)----||-------------------------|
|------|--------||-------------------------|
|------|--------||-------------------------|
|------|--------||-------------------------|
|
| H      +H        Q  Q        Q       Q
|-4----|-(4)----||-------------------------|
|-5----|-(5)----||-2--2--------------------|
|-4----|-(4)----||-2--2--------2-------2---|
|-6----|-(6)----||-4--4--------4-------4---|
|------|--------||-4--4--------4-------4---|
|------|--------||-2--2--------2-------2---|


  A                                                Bm
    ~~~~                                            ~~~~~~~~~~~~~~~~~~~~~~~~~~
   +Q    E      +e   S     +S   e  S      +S   E    H               +H
|-------12pb14r(12)------------------------------|---------------------------|
|-(12)--------------12b14r(12)p10-12pb14r(12)-10-|-12b15===========(12)r-----|
|------------------------------------------------|---------------------------|
|------------------------------------------------|---------------------------|
|------------------------------------------------|---------------------------|
|------------------------------------------------|---------------------------|
|
|   Q    E       E   S      S   e  S      +S   e    E      E   Q     Q    Q
|------------------------------------------------|---------------------------|
|---2----2---------------------------------------|------------(3)----3----3--|
|---2----2-----------2----------2----------------|--4----------4-----4----4--|
|---2----2-------2----------4---2--4b6r===(4)--2-|--4-----(4)--------4----4--|
|---0----0---------------------------------------|--2----------------2-------|
|------------------------------------------------|---------------------------|


  F#m                                  C#m                          Bm
 ~~~~~                                                    ~~~~~~~
   H           E       +E   E     E    S     +S  +S      +S  +H.
|------------------------------------|---------------------------------------------|
|-------------10b12r==(10)--7----10--|-9pb10r(9)-(9)pb10r(9)-(9)-------------------|
|-11---------------------------------|---------------------------------------------|
|------------------------------------|---------------------------------------------|
|------------------------------------|---------------------------------------------|
|------------------------------------|---------------------------------------------|
|
|  E. S E S S  S    S   E  +S  S  E    Q                      E  E  S S S S E S S
|-----------------------2--(2)---(2)-|-4----------------------------2-2-2-2-2------|
|-(2)-------------------2--(2)----2--|-5----------------------5-----3-3-3-3-3------|
|--2--2-------------2----------2--2--|-6----------------------6--6\-4-4-4-4-4-x-x--|
|--4----4---4-------4----------------|-6----------------------6-----4-4-4-4-4-x-x--|
|--4------4----4---------------------|-4----------------------------2-2-2-2-2------|
|--2---------------------------------|---------------------------------------------|


  Bm7       D
                         ~~
  Q   E E    E     E     Q
|-----------12b14-12b14-12---|
|-7---7s5--------------------|
|----------------------------|
|----------------------------|
|----------------------------|
|----------------------------|
|
| E E E S S  E     E     E E
|-----2------2-----------2-2-|
|-----3------3-----------3-3-|
|---2---2-2--2-----2-----2-2-|
|-4----------4-----------4-4-|
|-2--------------------------|
|----------------------------|


  A                G                      D
                                         2/4
   S  S  S  S  S S S S S S E   +E.    S    S  S  S  S  S S  S S
|-17s14-14s12-12s9-9s7-7s5-5---(5)s==17-|-17S14-14S12-12S9--9S7--|
|---------------------------------------|------------------------|
|---------------------------------------|------------------------|
|---------------------------------------|------------------------|
|-16s14-14s12-12s9-9s7-7s5-5---(5)s==17-|-17S14-14S12-12S9--9S7--|
|---------------------------------------|------------------------|
|
|  E     S  S  S S E   S S S S +E  E       E     S  S  S E.
|----------------------------3-(3)-3----|--2-----2-------2-------|
|----------------------------0-(0)-0----|--3-----------3---------|
|--------2--2----------------0-(0)-0----|--2--------2------------|
|--------------2h4-4---2p0-0------------|--4---------------------|
|--0------------------------------------|------------------------|
|----------------------3----------------|------------------------|


  E                        F#m      D      E
  E.  T T E.  T T   E.      T  T  S T T  S T T   H
|-7---7-7-7---7-7-|-7-------9--9--9-5-5--5-7-7-|-7----|
|-9---9-9-9---9-9-|-9------10-10-10-7-7--7-9-9-|-9----|
|-9---9-9-9---9-9-|-9------11-11-11-7-7--7-9-9-|-9----|
|-----------------|----------------------------|------|
|-----------------|----------------------------|------|
|-----------------|----------------------------|------|
|
| E..   T E..   T   T  E..        e      e       H
|-----------------|----------------------------|-4----|
|-9-----9-9-----9-|-9--9---------10-----10-----|-5----|
|-9-----9-9-----9-|-9--9---------11-----11-----|-4----|
|-9-----9-9-----9-|-9--9---------11-----11-----|-6----|
|-----------------|----------------------------|------|
|-----------------|----------------------------|------|


           Guitar Solo 1
            F#m
           4/4
  +H         E  E  E  E  Q         S  S      +S   S
|-(7)----||-----------------------------------------|
|-(9)----||-----------------------17----------------|
|-(9)----||-11-13-14s16-16b18--------16pb18r(16)-14-|
|--------||-----------------------------------------|
|--------||-----------------------------------------|
|--------||-----------------------------------------|
|
| +H         Q     Q     E    S S  E          E
|-(4)----||--2--------------------------------------|
|-(5)----||--2---------------------2----------------|
|-(4)----||--2-----2------------2--2----------2-----|
|-(6)----||--4-----4-----4------4--4----------4-----|
|--------||--4-----4-----4----4----4----------4-----|
|--------||--2-----2-----2----2-2--2----------2-----|


  A                                     Bm7
          ~~~~                             ~~~
   E     +E   E  E    E    E    E   E   a  Q     E   E    E  E    E    E
|-------------------------------------|------------------------------------|
|-------------------------------------|------------------------------------|
|-16b18r(16)-14s13---14---13---11s==9-|-9h11----11h=13---14h16---14p==13---|
|-------------------------------------|------------------------------------|
|-------------------------------------|------------------------------------|
|-------------------------------------|------------------------------------|
|
|  E      E   E  S S  S S  S S  S S E      e  E  E   S S  E  S S  S S  S S
|-------------------------------------|---------(2)-------2--2-2--2-2--2-2-|
|--2----------2-----------------------|----------3--------3--3-3--3-3--3-3-|
|--2----------2------------2-2------2-|---(4)----2-----2--2--2-2--2-2--2-2-|
|--2------2---2----2-------2-2--4p2-2-|----4--4--4---4----4--4-4--4-4--4-4-|
|--0------0---0--4----2h4-----------4-|----2--2--2--------2--2-2--2-2--2-2-|
|-------------------------------------|------------------------------------|


  F#m                                  C#m
   ~~
   Q   S S a  E    +S  S  S S +S   E    S
|------------------------------------------|
|----------------------9h10p9-(9)------10--|
|-11--11p9-9h11---(11)------------11-------|
|------------------------------------------|
|------------------------------------------|
|------------------------------------------|
|
|  Q   S S    S S   S  S  E    S   S S  S
|--2---2------0h2---2--2--2----2---2-2s=9--|
|--2---2------0h2---2--2--2----2---2-2s=9--|
|--2---2-x----0h2---2--2--2----2---2-2s=9--|
|--4---4-x----4-----4--4--4----4---4-4s11--|
|--4---4-x----4-----4--4--4----4---4-4-11--|
|--2---2-x----------2--2--2----2---2-2s=9--|


   ~~~~~~~~~~~~~~~~~~~~~~~~~~~~~~~~~~~~~~~
   Q           Q           Q           T  +S.  E
|--------------------------------------------------|
|--9----------10----------12b14=======12r(12)-10---|
|--------------------------------------------------|
|--------------------------------------------------|
|--------------------------------------------------|
|--------------------------------------------------|
|
|  S  S  S  S  S  S  S  S  E     S  S  E       S S
|--9-----------------------------------------------|
|--9-----------------------------------------------|
|--9--9--9--9--9--9--9--9--------------------------|
|-11-11-11-11-11-11-11-11-------------11------11-9-|
|-11-11-11-11-11-11-11-11----------11--------------|
|--9--9--9--9--9--9--9--9--9-----9-----------------|


  Bm                     D
   Q           Q          Q           S     +S   e
|-12b14-------14b16------16b17-------14b16r(14)-12---|
|----------------------------------------------------|
|----------------------------------------------------|
|----------------------------------------------------|
|----------------------------------------------------|
|----------------------------------------------------|
|
|  S    S S S  S    S E   S    S S S  S      S   E
|----------------------------------------------------|
|--7-----------7----------7----7-7-7--7------7---7\--|
|--7----7-7-7--7----7-7\--7----7-7-7--7------7---7\--|
|--9----9-9-9--9----9-9\--7----7-7-7--7------7---7\--|
|--9----9-9-9--9----9-9\--5----5-5-5--5------5---5\--|
|--7-----------7-------------------------------------|


  A                       G                        D
                                                  2/4
                                   ~~~~~~~~                 ~~~~~~~
   S  S  S  S  S  S  S  S  E       E    Q           E       E    E    S  S
|-17p14-17-17-17p14-17-17-17b19---17---17--------|-17b20---17---17---17-17-|
|------------------------------------------------|-------------------------|
|------------------------------------------------|-------------------------|
|------------------------------------------------|-------------------------|
|------------------------------------------------|-------------------------|
|------------------------------------------------|-------------------------|
|
|  S  S  S  S  S  S  S  S  S    S  S S +S  S S S    S    S  S S  S S  E
|------------------------------------------------|--2----2--2-2--2-2--2----|
|------------------------------------------------|--3----3--3-3--3-3--3----|
|------------------------------------0-(0)-0-0-0-|--2----2--2-2--2-2--2----|
|--0h=2--2--2--2-----2--2----------0-------------|--0----0--0-0--0-0--0----|
|--0h=2--4--4--2--4-------------2----------------|-------------------------|
|--------------------------3---------------------|-------------------------|


  E                                          F#m
                         ~~~~~~~~~~
   S   S  S  S    S   S  E      E.      T  T  e  e
|-17p=16-16s14---14s=12-12---|-12------14-14-14----|
|----------------------------|------------------15-|
|----------------------------|---------------------|
|----------------------------|---------------------|
|----------------------------|---------------------|
|----------------------------|---------------------|
|
|  E..         T  E..      T    T  E..        e  e
|----------------------------|---------------------|
|--9-----------9--9--------9-|--9--9---------10-10-|
|--9-----------9--9--------9-|--9--9---------11-11-|
|--9-----------9--9--------9-|--9--9---------11-11-|
|----------------------------|---------------------|
|----------------------------|---------------------|


  E
             ~~~~~~~~~~
   E.  T  T  Q     +Q   E. S
|-12--12h14p12--|-(12)-------|
|---------------|------------|
|---------------|-------2s14-|
|---------------|------------|
|---------------|------------|
|---------------|------------|
|
|  H               +H
|--4------------|--(4)-------|
|--5------------|--(5)-------|
|--4------------|--(4)-------|
|--6------------|--(6)-------|
|---------------|------------|
|---------------|------------|


  F#m
 4/4
   |--3--|  |--3--|  |--3--|  |--3--|  |--3--|  |---3---|  |--3--|  |--3--|
   S  S  S  S  S  S  S  S  S  S  S  S  S  S  S  S  S    S  S  S  S  S  S  S
|----------------------------------------------------------------------------|
|-17p14----17p14----17p14----17p14----17p14----17p14------17p14----17p14-----|
|-------14-------14-------14-------14-------14---------14-------14-------14--|
|----------------------------------------------------------------------------|
|----------------------------------------------------------------------------|
|----------------------------------------------------------------------------|
|
|  Q                 Q                 E        S    S     E        E
|--2-------------------------------------------------------------------------|
|--2-------------------------------------------------------2-----------------|
|--2-----------------2-------------------------------2-----2--------2--------|
|--4-----------------4-----------------4-------------4-----4--------4--------|
|--4-----------------4-----------------4--------4----------4--------4--------|
|--2-----------------2-----------------2--------2----2-----2--------2--------|


  A
                 ~~
   E  E  E  E    E    E        S  +S   E
|-17-17-17-17---17---17b19====17r(17)-14-|
|----------------------------------------|
|----------------------------------------|
|----------------------------------------|
|----------------------------------------|
|----------------------------------------|
|
|  E  E  E  S S  S S  S     S  S   S   E
|----------------------------------------|
|--2-----2-------------------------------|
|--2-----2------------2-----2----------2-|
|--2--2--2----2-------2-----2--4---2---2-|
|--0--0--0--4----2-4-------------------4-|
|----------------------------------------|


  Bm7                                                 F#m                            C#m
       ~~~~~~~~~~~~~         ~~~                                       ~~~~~~~~~
                                      |----3----|
   S   E.       +E   S  +S   E.    S  E    E    E      Q.         E    Q      E    E
|-17--17b19====(17)-17r(17)-14-------14---17---14---|-17b19------17---14-----14---17-----|
|---------------------------------17----------------|------------------------------------|
|---------------------------------------------------|------------------------------------|
|---------------------------------------------------|------------------------------------|
|---------------------------------------------------|------------------------------------|
|---------------------------------------------------|------------------------------------|
|
|  e         E   E   S   S   E  S  S  S S    S    S    Q     S S  S S  S S E  S S  S  S
|---------------(2)----------2--2--2--2-2----2----2-|--2-----2----0h2--2-2-2--2-2--2s=9--|
|----------------3-----------3--3--3--3-3----3----3-|--2-----2----0h2--2-2-2--2-2--2s=9--|
|-(4)------------2-------2---2--2--2--2-2----2----2-|--2-----2-x--0h2--2-2-2--2-2--2s=9--|
|--4---------4---4---4-------4--4--4--4-4----4----4-|--4-----4-x--4----4-4-4--4-4--4s11--|
|--2---------2---2-----------2--2--2--2-2----2----2-|--4-----4-x--4----4-4-4--4-4--4-11--|
|---------------------------------------------------|--2-----2-x-------2-2-2--2-2--2s=9--|


   ~~
   Q           E     a  E     S     +S       +S   +S   E     +E
|-16----------16----16s17----16b17r(16)b17==(16)r(16)-16b17-(16)---|
|------------------------------------------------------------------|
|------------------------------------------------------------------|
|------------------------------------------------------------------|
|------------------------------------------------------------------|
|------------------------------------------------------------------|
|
|  S  S  S  S  S  S     S  S  E               S    S   E      S  S
|--9---------------------------------------------------------------|
|--9---------------------------------------------------------------|
|--9--9--9--9--9--9-----9--9---------------------------------------|
|-11-11-11-11-11-11----11-11--------------------------11-----11--9-|
|-11-11-11-11-11-11----11-11----------------------11---------------|
|--9--9--9--9--9--9-----9--9--9---------------9--------------------|


  Bm                D
   ~~
   Q        E    E   E       E    S      +E     S
|-14-------14---14--------------------------------|
|-------------------17b19---17--------------------|
|--------------------------------16pb18r(16)------|
|-------------------------------------------------|
|-------------------------------------------------|
|-------------------------------------------------|
|
|  S S S S  S S  E   S    S  S S  S       S  E
|-------------------------------------------------|
|--7--------7--------7----7--7-7--7-------7--7\---|
|--7-7-7-7--7-7--7\--7----7--7-7--7-------7--7\---|
|--9-9-9-9--9-9--9\--7----7--7-7--7-------7--7\---|
|--9-9-9-9--9-9--9\--5----5--5-5--5-------5--5\---|
|--7--------7-------------------------------------|


  A                   G
    E    S  S  E    S  S  S  S  S S  S  S E
|-------17-17-17---17s14-14s12-12s9--9s=7-7/---|
|----------------------------------------------|
|-(14)-----------------------------------------|
|----------------------------------------------|
|--16---16-16-16---16s14-14s12-12s9--9s=7-7/---|
|----------------------------------------------|
|
|   S S  S  S  S S  S  S  S  S  S S +S  S S  S
|----------------------------------------------|
|----------------------------------------------|
|---------------------------------0-(0)-0-0--0-|
|---0h2--2--2--2----2--2--------0--------------|
|---0h2--4--4--2h4-----------2-----------------|
|-------------------------3--------------------|


  D                      E                            F#m
 2/4
   S  S  S  S  S S S S   E.  T T E.  T T   E.     T T  e  e
|-17S14-14S12-12S9-9S7-|-7---7-7-7---7-7-|-7------9-9--9--5-|
|----------------------|-----------------|------------------|
|----------------------|-----------------|------------------|
|----------------------|-----------------|------------------|
|-17S14-14S12-12S9-9S7-|-7---7-7-7---7-7-|-7------9-9--9--5-|
|----------------------|-----------------|------------------|
|
|  S  S  S  S  S S E     E..   T E..   T   T  E..      e  e
|--2--2--2--2--2-2-2---|-----------------|------------------|
|--3--3--3--3--3-3-3---|-9-----9-9-----9-|-9--9-------10-10-|
|--2--2--2--2--2-2-2---|-9-----9-9-----9-|-9--9-------11-11-|
|--0--0--0--0--0-0-0---|-9-----9-9-----9-|-9--9-------11-11-|
|----------------------|-----------------|------------------|
|----------------------|-----------------|------------------|


                  3rd Verse
  E                F#m
                  4/4
                                    ~~~~~
  H      +H        H       e     E  Q
|-7----|-(7)----||----------------------|
|------|--------||--------12b14-12-10---|
|------|--------||----------------------|
|------|--------||----------------------|
|-7----|-(7)----||----------------------|
|------|--------||----------------------|
|
| H      +H        Q  E E  Q        E e
|-4----|-(4)----||-2--2-----------------|
|-5----|-(5)----||-2--2-------------2---|
|-4----|-(4)----||-2--2-------------2---|
|-6----|-(6)----||-4--4-4-----------4---|
|------|--------||-4--4----4--------4-4-|
|------|--------||-2--2-----------------|


  A
 ~~~~~~
   +H          S      +S   +S       +S   +E          +E
|---------------------------------------------------------|
|-(10)--------10b12==(10)r(10)b12==(10)r(10)b12-----(10)--|
|---------------------------------------------------------|
|---------------------------------------------------------|
|---------------------------------------------------------|
|---------------------------------------------------------|
|
|                                         |---3---|
|   E.S E S S  S       S    E             S     S S   E
|---------------------------------------------------------|
|---2-----------------------------------------------------|
|-----------2-----------------------------2---------------|
|---2h4---2-------------------------------2h====4p2-------|
|---0---0------0-------2----0-------------------------4---|
|---------------------------------------------------------|


  Bm7                 F#m
  ~
                                                  |------3------|
  H         H         Q  E  E        +E      e    S      +S     S  E
|-------------------|------12b14====(12)r---12-------------------------|
|-7-----------------|----------------------------12pb14r(12)p==10-12---|
|-------------------|--------------------------------------------------|
|-------------------|--------------------------------------------------|
|-------------------|--------------------------------------------------|
|-------------------|--------------------------------------------------|
|
| E E E S S E E E E   Q  E  S     S   S   S  S S  S          S     S S
|-------------------|-2------------------------------------------------|
|-----3-----3---3---|-2------------------------------------------------|
|---2-2-----2-2-2-x-|-2--2-------------------2-------------------------|
|---4---4-4-4-4-4-x-|-4--4-------------------2----4----------2-------2-|
|-2---------2---2---|-4--4--4-----4---2h==4----4-------------------4---|
|-------------------|-2------------------------------------------------|


  C#m
  ~~~~~~~~~
  Q   +S   S S  S Q.      E
|-----------------------------|
|-9---(9)h12p9h12p9------10---|
|-----------------------------|
|-----------------------------|
|-----------------------------|
|-----------------------------|
|
| E E  Q          E  E E  E
|-----------------------------|
|------5---------------5-(5)\-|
|---4--4----------4--4-4-(4)\-|
|---6-------------6-------6\--|
|-4---------------4-----------|
|-----------------------------|


  Bm7                D
  E.   T  T E.     T  T S   S  S  S  E     +E
|----------------------------------------------|
|-7----7h10p7------7h10p7-----10-12-12b14r(12)-|
|-------------------------/11------------------|
|----------------------------------------------|
|----------------------------------------------|
|----------------------------------------------|
|
| E  S S    S  S E      E      Q            E
|----------------------------------------------|
|------3----------------3------3------------3--|
|------2-------2--------2------2------------2--|
|----4------4----4------4------4------------4--|
|-2--------------------------------------------|
|----------------------------------------------|


  A                               G                      D                        E
                                                        2/4
                                                                         ~~~~~~~
                                |---3---|
   Q..              S      +E   S  +S   S  E    E         E     +S   S  +E   E    E.  T T E.  T T
|------------------------------------------------------|------------------------|-7---7-7-7---7-7-|
|-10---------------12b14==(12)-12r(12)-10-10---12b14---|-12b14r(12)-10-(10)-10\-|-9---9-9-9---9-9-|
|------------------------------------------------------|------------------------|-9---9-9-9---9-9-|
|------------------------------------------------------|------------------------|-----------------|
|------------------------------------------------------|------------------------|-----------------|
|------------------------------------------------------|------------------------|-----------------|
|
|  E   S S +S  S S  S       E   E          S S  S    S    E      S   S   E   E    E..   T E..   T
|-------------------------------3----------3-3--3----3-|--2------2---2---2---2--|-----------------|
|--2-----2-(2)-2----2-----------0----------0-0--0----0-|--3------3---3---3---3--|-9-----9-9-----9-|
|--2---2-2-(2)-2----2-------0---0----------0-0--0----0-|--2------2---2---2---2--|-9-----9-9-----9-|
|--2---2---------2----------0---0----------0-0--0----0-|--0------0---0---0---0--|-9-----9-9-----9-|
|--0-------------0----------2--------------------------|------------------------|-----------------|
|---------------------------3--------------------------|------------------------|-----------------|


         F#m      D      E
  E.      T  T  S T T  S T T   H      +H
|-7-------9--9--9-5-5--5-7-7-|-7----|-(7)----|
|-9------10-10-10-7-7--7-9-9-|-9----|-(9)----|
|-9------11-11-11-7-7--7-9-9-|-9----|-(9)----|
|----------------------------|------|--------|
|----------------------------|------|--------|
|----------------------------|------|--------|
|
| T  E..        e      e       H      +H
|----------------------------|-4----|-(4)----|
|-9--9---------10-----10-----|-5----|-(5)----|
|-9--9---------11-----11-----|-4----|-(4)----|
|-9--9---------11-----11-----|-6----|-(6)----|
|----------------------------|------|--------|
|----------------------------|------|--------|


  F#m                         A
 4/4
                              ~
  H      E     +T  S.   E E   H         a  E    E    E    E
|---------------------------|-------------------------------------|
|-------10b12r(10)p7----9-7-|------------------10---12---12b14----|
|---------------------------|-9---------9s11----------------------|
|---------------------------|-------------------------------------|
|---------------------------|-------------------------------------|
|---------------------------|-------------------------------------|
|
| Q  Q   E      S     S E E   E E E S S    S S  S S  S S  E
|-2-------------------------|-------------------------------------|
|-2---------------------2---|-2---2-------------------------------|
|-2--2----------------2-2-2-|-2---2-------------2-2-------2-------|
|-4--4---4------------4-4-4-|-2-2-2---2---------2-2--4p2--2-------|
|-4--4---4------4-------4-4-|-0-0-0-4------2h4------------4-------|
|-2--2---2------2-----2-2-2-|-------------------------------------|


  Bm7                                    F#m                              C#m
           ~~~~~~~~~~
   S      +E.    +H.                     H           E.        +S  E.      S
|--------------------------------------|-------------------------------------|
|-12pb14r(12)---(12)-------------------|------------10b12r====(10)-7------10-|
|--------------------------------------|-------------------------------------|
|--------------------------------------|-------------------------------------|
|--------------------------------------|-------------------------------------|
|--------------------------------------|-------------------------------------|
|
|  e          E   E  S S E S S S S S S   Q  S S S S  S    S E      S  S S  S
|----------------(2)-----2-2-2-2-2-2-2-|-2--2---0h2--2----2-2------2--2-2s=9-|
|-----------------3------3-3-3-3-3-3-3-|-2--2---0h2--2----2-2------2--2-2s=9-|
|-(4)-------------2----2-2-2-2-2-2-2-2-|-2--2-x-0h2--2----2-2------2--2-2s=9-|
|--4----------4---4--4---4-4-4-4-4-4-4-|-4--4-x-4----4----4-4------4--4-4s11-|
|--2----------2---2------2-2-2-2-2-2-2-|-4--4-x-4----4----4-4------4--4-4-11-|
|--------------------------------------|-2--2-x------2----2-2------2--2-2s=9-|


                                                         Bm                   D
   ~~~~~~~~~~~~~~~~~~~                                    ~~~
                                                                                |--3---|
   Q          +S      +S  +S      +S  +Q.          S S   +Q.            E      +E     +S   S  S  +S   S E
|------------------------------------------------------|---------------14b17==(14)---(14)r---14-(14)s12-------|
|--9----------(9)b10==(9)r(9)b10==(9)r(9)---------10-7-|-(7)--------------------------------------------------|
|------------------------------------------------------|------------------------------------------------------|
|------------------------------------------------------|------------------------------------------------------|
|------------------------------------------------------|------------------------------------------------------|
|------------------------------------------------------|------------------------------------------------------|
|
|  S  S  S  S  S       S   S       S   E  S  S  E  S S    S  S S S S S  E       S  S       S  S   S   S E
|--9---------------------------------------------------|------------------------------------------------------|
|--9---------------------------------------------------|--7--------7------------7--7-------7--7---7---7-7\----|
|--9--9--9--9--9-------9---9-------9-------------------|--7--7-7-7-7-7--7\------7--7-------7--7---7---7-7\----|
|-11-11-11-11-11------11--11------11-----------11-11-9-|--9--9-9-9-9-9--9\------7--7-------7--7---7---7-7\----|
|-11-11-11-11-11------11--11------11--------11---------|--9--9-9-9-9-9--9\------5--5-------5--5---5---5-5\----|
|--9--9--9--9--9-------9---9-------9---9--9------------|--7--------7------------------------------------------|


  A                    G                    D
                                           2/4
   S  S  S  S  S S S S S S E   +E.      S    S  S  S  S  S S S S
|-17s14-14s12-12s9-9s7-7s5-5---(5)s====17-|-17S14-14S12-12S9-9S7-|
|-----------------------------------------|----------------------|
|-----------------------------------------|----------------------|
|-----------------------------------------|----------------------|
|-16s14-14s12-12s9-9s7-7s5-5---(5)s====17-|-17S14-14S12-12S9-9S7-|
|-----------------------------------------|----------------------|
|
|  S  S  S  S  S S S S S S S S +S  S S  S    S  S  S  S  S S E
|-----------------------------------------|--2--2--2--2--2-2-2---|
|-----------------------------------------|--3--3--3--3--3-3-3---|
|----------------------------0-(0)-0-0--0-|--2--2--2--2--2-2-2---|
|--0h=2--2--2--2---2-2-----0--------------|--0--0--0--0--0-0-0---|
|--0h=2--4--4--2h4-------2----------------|----------------------|
|----------------------3------------------|----------------------|


  E                        F#m      D      E
  E.  T T E.  T T   E.      T  T  S T T  S T T
|-7---7-7-7---7-7-|-7-------9--9--9-5-5--5-7-7--|
|-9---9-9-9---9-9-|-9------10-10-10-7-7--7-9-9--|
|-9---9-9-9---9-9-|-9------11-11-11-7-7--7-9-9--|
|-----------------|-----------------------------|
|-----------------|-----------------------------|
|-----------------|-----------------------------|
|
| E..   T E..   T   T  E..        e      e
|-----------------|-----------------------------|
|-9-----9-9-----9-|-9--9---------10-----10------|
|-9-----9-9-----9-|-9--9---------11-----11------|
|-9-----9-9-----9-|-9--9---------11-----11------|
|-----------------|-----------------------------|
|-----------------|-----------------------------|


                  Guitar Solo 2
                   F#m
                  4/4
                            ~~~~~~~~
  H      +H         Q      +Q     Q   S  S  E
|-7----|-(7)----||-17b19r=(17)---14--17p14----|
|-9----|-(9)----||-------------------------17-|
|-9----|-(9)----||----------------------------|
|------|--------||----------------------------|
|------|--------||----------------------------|
|------|--------||----------------------------|
|
| H      +H         Q       E  E  Q   E     e
|-4----|-(4)----||--2-------2-----------------|
|-5----|-(5)----||--2-------2---------2-------|
|-4----|-(4)----||--2-------2---------2-------|
|-6----|-(6)----||--4-------4--4------4-------|
|------|--------||--4-------4-----4---4-----4-|
|------|--------||--2-------2-----------------|


  A
   S      +S   +E     E  S  S  S  S  S  S  S    S    S  S
|---------------------------------------------------------|
|-17b19==(17)r(17)---17-17-17-15p14----14-15p==14------14-|
|-----------------------------------14--------------14----|
|---------------------------------------------------------|
|---------------------------------------------------------|
|---------------------------------------------------------|
|
|                                          |--3---|
|  E.              S  E  S  S  S  S  E     S S    S  E
|---------------------------------------------------------|
|--2------------------------------------------------------|
|---------------------------2--------------2--------------|
|--2h==============4-----2-----------------2h4p===2-------|
|--0------------------0--------0--2--0---------------4----|
|---------------------------------------------------------|


  Bm7
   S   S  S  S  S   S  S  S  E  E       +E    E
|-------------------------------------------------|
|-15--14----14-15--14----14-15-15b17r==(15)-------|
|--------14-----------14----------------------x---|
|-------------------------------------------------|
|-------------------------------------------------|
|-------------------------------------------------|
|
|  e      E     E      S  S  E  S    S   S  S S S
|--------------(2)-----------2--2----2---2--2-2-2-|
|---------------3------------3--3----3---3--3-3-3-|
|-(4)-----------2---------2--2--2----2---2--2-2-2-|
|--4------4-----4------4-----4--4----4---4--4-4-4-|
|--2------2-----2------------2--2----2---2--2-2-2-|
|-------------------------------------------------|


  F#m
                      ~~~~~~~~~~~
   Q.         +S   S  Q      +S   S  S  S
|-----------------------------------------|
|-15b17r=====(15)p14-14-----(14)-14-14-14-|
|-----------------------------------------|
|-----------------------------------------|
|-----------------------------------------|
|-----------------------------------------|
|
|  Q     S S   S   S  S S E   S   S  S  S
|--2-----2-----0h==2--2-2-2---2---2--2s=9-|
|--2-----2-----0h==2--2-2-2---2---2--2s=9-|
|--2-----2-x---0h==2--2-2-2---2---2--2s=9-|
|--4-----4-x---4------4-4-4---4---4--4s11-|
|--4-----4-x---4------4-4-4---4---4--4-11-|
|--2-----2-x----------2-2-2---2---2--2s=9-|


  C#m                                        Bm             D
                                                                    ~
    E     E     E     E     E E     E  E     E   E   E   E  E   E   Q
|------------------------------------------|-------------------------------|
|-/14s===12----12s===10----10s9-----9h10---|-7h==9-------------------------|
|------------------------------------------|---------9p==7--6h==7----------|
|------------------------------------------|------------------------7------|
|------------------------------------------|-------------------------------|
|------------------------------------------|-------------------------------|
|
|   S  S  S  S  S  S  S  S  E S  S  E  S S   S S S S S S E  S S S S S S E
|---9--------------------------------------|-------------------------------|
|---9--------------------------------------|-7-------7------7-7-7-7-7-7-7\-|
|---9--9--9--9--9--9--9--9-----------------|-7-7-7-7-7-7-7\-7-7-7-7-7-7-7\-|
|--11-11-11-11-11-11-11-11---------11-11-9-|-9-9-9-9-9-9-9\-7-7-7-7-7-7-7\-|
|--11-11-11-11-11-11-11-11------11---------|-9-9-9-9-9-9-9\-5-5-5-5-5-5-5\-|
|---9--9--9--9--9--9--9--9--9-9------------|-7-------7---------------------|


  A                          G
                                      ~~
    S  S  S  S  E    a  S  S  E       E    E       E
|-----------------------------------------------------------|
|-----10-12----10---10s14-17-17b19---17---------------------|
|-/11-------11----------------------------16b18---16b17-----|
|-----------------------------------------------------------|
|-----------------------------------------------------------|
|-----------------------------------------------------------|
|
|   S  S  S  S  S S     S  S  S    S  S S +S    S  S    S
|-----------------------------------------------------------|
|-----------------------------------------------------------|
|---------------------------------------0-(0)---0--0----0---|
|---0h=2--2--2--2-------2--2----------0---------------------|
|---0h=2--4--4--2h4----------------2------------------------|
|-----------------------------3-----------------------------|


  D                             E
 2/4
                                     ~~
   S  E.         +E      e       S   E  T  T  E.   T  T
|-----------------------------|-------------------------|
|-----------------------------|-------------------------|
|-14p10b14======(10)r---10b12-|-14h=16-16-16-16---16-16-|
|-----------------------------|-------------------------|
|-----------------------------|-------------------------|
|-----------------------------|-------------------------|
|
|  S  S     S S   S   S  E       E..       T  E..     T
|--2--2-----2-2---2---2--2----|-------------------------|
|--3--3-----3-3---3---3--3----|--9---------9--9-------9-|
|--2--2-----2-2---2---2--2----|--9---------9--9-------9-|
|--0--0-----0-0---0---0--0----|--9---------9--9-------9-|
|-----------------------------|-------------------------|
|-----------------------------|-------------------------|


                F#m                 E
                                     ~~
   E.      T  T  s  T  T  s  T  T    H
|---------------------------------|-------|
|---------14-14-14----------------|-------|
|-16---------------14-14-14-16-16-|-16----|
|---------------------------------|-------|
|---------------------------------|-------|
|---------------------------------|-------|
|
|  T  E..        e        e          H
|---------------------------------|--4----|
|--9--9---------10-------10-------|--5----|
|--9--9---------11-------11-------|--4----|
|--9--9---------11-------11-------|--6----|
|---------------------------------|-------|
|---------------------------------|-------|


                               F#m
                              4/4
    ~~~~                        ~~~~~~
   +S    S  S  S  E     E       Q   Q    S      +S  E  T  +T   S  S  S
|----------17----20b23-20b22-|-17--19---19b21==(19)---19r(19)-17-19-17-|
|------/17----17-------------|-----------------------------------------|
|-(16)-----------------------|-----------------------------------------|
|----------------------------|-----------------------------------------|
|----------------------------|-----------------------------------------|
|----------------------------|-----------------------------------------|
|
|  +H                           Q   E E  Q             E          e
|--(4)-----------------------|--2---2----------------------------------|
|--(5)-----------------------|--2---2------------------2---------------|
|--(4)-----------------------|--2---2------------------2---------------|
|--(6)-----------------------|--4---4-4----------------4---------------|
|----------------------------|--4---4----4-------------4----------4----|
|----------------------------|--2---2----------------------------------|


  A
                                     ~~~
   S     S    S  S      E     +E     E.      S  S    S    S  S
|-19b21-19b21---19pb21-19b21r(19)---17------14-17---14---17-14-|
|--------------------------------------------------------------|
|--------------------------------------------------------------|
|--------------------------------------------------------------|
|--------------------------------------------------------------|
|--------------------------------------------------------------|
|
|                                               |--3---|
|  E.            S      E      S  S  S  S E     S S    S  E
|--------------------------------------------------------------|
|--2-----------------------------------------------------------|
|---------------------------------2-------------2--------------|
|--2h============4-------------2----------------2h4p===2-------|
|--0--------------------0------------0--2-0---------------4----|
|--------------------------------------------------------------|


  Bm7
                          ~~~~~~~~~~~~
   E     S  S     +E   S  S      +E.     S  S  S  S  S
|-------17---------------------------------------------|
|-17b19----17b19-(17)-17-17b19==(17)r---14-17-14-17-14-|
|------------------------------------------------------|
|------------------------------------------------------|
|------------------------------------------------------|
|------------------------------------------------------|
|
|  e     E         E   S  S       E   S  S  S  S  S  S
|-----------------(2)-------------2---2--2--2--2--2--2-|
|------------------3--------------3---3--3--3--3--3--3-|
|-(4)--------------2------2-------2---2--2--2--2--2--2-|
|--4-----4---------4---4----------4---4--4--4--4--4--4-|
|--2-----2---------2--------------2---2--2--2--2--2--2-|
|------------------------------------------------------|


  F#m
   ~~~~~    ~~~~~
   E.    S  E.        S  E       E     S  T      +T   S  S
|-------------------------------------17--------------------|
|-17b19-14-17b19-----14-17b19---17b19----17pb19r(17)-14-14--|
|-----------------------------------------------------------|
|-----------------------------------------------------------|
|-----------------------------------------------------------|
|-----------------------------------------------------------|
|
|  Q        S    S S  S  S    S  E     S  S           S  S
|--2--------2------0h=2--2----2--2-----2--2-----------2--2/-|
|--2--------2------0h=2--2----2--2-----2--2-----------2--2/-|
|--2--------2----x-0h=2--2----2--2-----2--2-----------2--2/-|
|--4--------4----x-4-----4----4--4-----4--4-----------4--4/-|
|--4--------4----x-4-----4----4--4-----4--4-----------4--4/-|
|--2--------2----x-------2----2--2-----2--2-----------2--2/-|


     C#m
       ~~~                        ~~~~~~~~~~~~~~~~~
   a   Q           a  E.       S  Q       Q
|-------------------------------------------------|
|-14h=15----------16s17s======12-12-------9-------|
|-------------------------------------------------|
|-------------------------------------------------|
|-------------------------------------------------|
|-------------------------------------------------|
|
|      S  S  S  S     S  S  S  S  E S  S  E  S S
|-----/9------------------------------------------|
|-----/9------------------------------------------|
|-----/9--9--9--9-----9--9--9--9------------------|
|----/11-11-11-11----11-11-11-11---------11-11-9\-|
|----/11-11-11-11----11-11-11-11------11----------|
|-----/9--9--9--9-----9--9--9--9--9-9-------------|


  Bm             D                       A                    G
 ~~~~      ~~~~~~~~~~~~
   Q    a  Q      Q       T      +S. E    S  S  S  S  S S S S S S E   +E.    S
|--------------------------------------|-17s14-14s12-12s9-9s7-7s5-5---(5)s==17---|
|-10---10h12-----12b14---12pb14r(12)---|-----------------------------------------|
|--------------------------------------|-----------------------------------------|
|--------------------------------------|-----------------------------------------|
|--------------------------------------|-16s14-14s12-12s9-9s7-7s5-5---(5)s==17---|
|--------------------------------------|-----------------------------------------|
|
|  E E     E S S  E    E  E          E    E     S  S  S S E   S S S S +E  E
|----------2------2-------2----------2-|----------------------------3-(3)-3------|
|----------3------3-------3----------3-|----------------------------0-(0)-0------|
|----2-------2-2--2----2--2----------2-|--------2--2----------------0-(0)-0------|
|--4--------------4-------4----------4-|--------------2-4-4---2-0-0--------------|
|--2-----------------------------------|--0--------------------------------------|
|--------------------------------------|----------------------3------------------|


                           Outro
  D                         E
 2/4
   S  S  S  S  S S  S S     E.  T T E.  T T
|-17S14-14S12-12S9--9S7-||--7---7-7-7---7-7-|
|-----------------------||o-9---9-9-9---9-9-|
|-----------------------||--9---9-9-9---9-9-|
|-----------------------||------------------|
|-17S14-14S12-12S9--9S7-||o-----------------|
|-----------------------||------------------|
|
|  E     S  S  S E.         E..   T E..   T
|--2-----2-------2------||------------------|
|--3-----------3--------||o-9-----9-9-----9-|
|--2--------2-----------||--9-----9-9-----9-|
|--4--------------------||--9-----9-9-----9-|
|-----------------------||o-----------------|
|-----------------------||------------------|


         F#m      D      E
  E.      T  T  S T T  S T T  3x H      +H
|-7-------9--9--9-5-5--5-7-7--||-7----|-(7)----*|
|-9------10-10-10-7-7--7-9-9-o||-9----|-(9)----*|
|-9------11-11-11-7-7--7-9-9--||-9----|-(9)----*|
|-----------------------------||------|--------*|
|----------------------------o||------|--------*|
|-----------------------------||------|--------*|
|
| T  E..        e      e      3x H      +H
|-----------------------------||-4----|-(4)----*|
|-9--9---------10-----10-----o||-5----|-(5)----*|
|-9--9---------11-----11------||-4----|-(4)----*|
|-9--9---------11-----11------||-6----|-(6)----*|
|----------------------------o||------|--------*|
|-----------------------------||------|--------*|
            
Submit corrections


        Little Wing lessons Hard to play? Try these video lessons and learn fast Little Wing lessons
        
↑ Back to top | Tablatures and chords for acoustic guitar and electric guitar, ukulele, drums are parodies/interpretations of the original songs. You may use it for private study, scholarship, research or language learning purposes only