» » »

Derek And The Dominos - I Looked Away Tabs

Artists:  A B C D E F G H I J K L M N O P Q R S T U V W X Y Z # 

I Looked Away Tabs

(ver. 2) Click to play this song!
Derek And The Dominos
 Rating:
4/5 (4 votes)

 I Looked Away lessons Tabs too difficult? Try these video lessons and learn fast
 
                Gtr I (E A D G B E) - 'Eric Clapton - Electric Guitar'
Gtr II (E A D G B E) - 'Duane Allman - Electric Guitar'
Gtr III (E A D G B E) - 'Eric Clapton - Electric Guitar'


 Intro
  Q=120
  N.C.
 4/4
  Gtr I
  H    E E E E   Q  S S E S S E e E   +H     a E E e E   +H     E E E E
|--------------|--------------------|------------------|----------------|
|--------------|--------------------|------------------|----------------|
|--------------|----0-0-2-----0-----|------------------|----------------|
|------------x-|-x--2-2---0h2---2---|------------0-2-3-|-(3)----3-2-0-2-|
|----------0-2-|-3------------------|--------0h2-------|--------------3-|
|--------3-----|------------------3-|-(3)--------------|----------------|


                        C         N.C.
  +E  S S E E +E  S S E  E   +Q   E. S a E E  e  E
|--------------------------|-----------------------|
|--------------------------|-----------------------|
|---------0--------------0-|-(0)--0--0---0-0-------|
|-(2)-0h2-------------0--2-|-(2)--2--2-0h2----2----|
|-(3)-------------0h2----3-|-(3)-------------------|
|-----------3-(3)----------|---------------------3-|
|
| Gtr II
|  H           Q      E  E   +H          Q    E  E
|--------------------------|-----------------------|
|-----------------------/5-|-(5)---------6---(5)-8-|
|--------------------------|-----------------------|
|-----------------------/5-|-(5)---------7---(5)-9-|
|--------------------------|-----------------------|
|--------------------------|-----------------------|


                                    |-3-|
  +H      a  E E e   E    +Q.   E   Q Q Q
|----------------------|-------------------|
|----------------------|-------------------|
|--------------------2-|--(2)--------------|
|--------------0-2---3-|--(3)------/3-2p0--|
|---------0h=2---------|-------------------|
|-(3)------------------|-------------------|
|
|                                   |-3-|
| +Q.   E    E E E   E    +Q.   E   Q Q Q
|----------------------|-------------------|
|-(8)-------10-8---/10-|-(10)-----/10-8-6--|
|----------------------|-------------------|
|-(9)-------10-9---/10-|-(10)-----/10-8-7--|
|----------------------|-------------------|
|----------------------|-------------------|


                Chorus
                   C
  |-3-| |-3-|
  Q Q Q Q Q Q      E E E E +E  Q  E
|-------------||--------------------|
|-------------||--------------------|
|-------------||-------0------------|
|-------------||-----2------------0-|
|-3-2-0---0-2-||---3-----2-(2)-3----|
|-------3-----||--------------------|
|
| |-3-| |-3-|
| Q Q Q Q Q Q    a Q   Q    H
|-------------||--------------------|
|-5-3-1-------||-0h1----------------|
|-------4-2-0-||---0----------------|
|-5-3-2-------||-0h2----------------|
|-------5-3-2-||---3----------------|
|-------------||---3----------------|


  Dsus2                        G7              E
  E E E   E      E   E E   E   E  E E E +Q   E E
|-----0----------------------|--------1-(1)----0--|
|---3-----3------------3-----|------3----------0--|
|-2--------------2-----------|-----------------1--|
|--------------------0-----0-|----3------------2--|
|----------------------------|-2------------------|
|----------------------------|--------------------|
|
|                              ~~
| Q   Q     a    S S E Q       H.            Q
|----------------------------|--------------------|
|----------------------------|--------------------|
|-----7b9---7pb9r7p5---7b9---|-7------------------|
|--------------------7-------|--------------------|
|----------------------------|--------------------|
|----------------------------|--------------------|


         Am    G  F
  +E  Q  E +E  Q  E   E E  E   E   +E   E e E
|-(0)----0-(0)------|----------1---(1)--------|
|-(0)-3--1-(1)-0----|----------1---(1)--1-----|
|-(1)-1--2-(2)-0----|------2------------2-2---|
|-(2)----2-(2)-0----|---3-----------------3---|
|--------0-(0)----3-|-3-----------------------|
|--------------3--1-|-1---------------------2-|
|
|  W                  Q    E   E   +E   E Q
|-------------------|-------------------------|
|-------------------|-------------------------|
|-------------------|----------()-------|
|-------------------|----------------7-----|
|-------------------|-------------------------|
|-------------------|-------------------------|


  D7                          G
  E E    E   E   +E   E E E   Q      a  E   E   S S  E  S S    E
|--------2---2---(2)--2-----|--------------------------------------|
|-3-1----1---1---(1)--1-----|--------------------------------------|
|-2-2-----------------------|------------------------0--2p0--------|
|-----------------------0---|---------------0---0h2------------2---|
|-------------------------0-|--------0h=2--------------------------|
|---------------------------|-3------------------------------------|
|
| E S S  E   E   +Q     E E   E   E     E   E   E    E  E      E
|---------------------------|--------------------------------------|
|---------------------------|----------12------12------12----------|
|---------()h==7---|--------------------------------------|
|---5h7---------------------|---------------12------()-|
|---------------------------|--------------------------------------|
|---------------------------|--------------------------------------|


  G7   D7   G7       C              Dsus2
   e E  e E Q  E E   E E E E +E  Q  E
|--1----2---1------|------------------|
|--0----1---0------|------------------|
|--0----2---0------|-----0------------|
|----------------0-|---2------------0-|
|------------------|-3-----2-(2)-3----|
|------------------|------------------|
|
|  E E  E E Q  Q     W
|------------------|------------------|
|-12---10---8------|------------------|
|------------------|------------------|
|------10---9------|------------------|
|------------------|------------------|
|------------------|------------------|


                                     G           E
  E E      Q    E   E       E    E   Q  Q  E E E E
|----------0-----------------------|----3--3-3---0-|
|---3-----------3------------------|----3--3-3---0-|
|-2-----------------2--------------|----0--0-0---1-|
|---------------------------0------|----3--3-3---2-|
|--------------------------------3-|-2-----------2-|
|----------------------------------|-------------0-|
|
|                                    ~
| E E     +Q   +E   E      +Q        H     H
|----------------------------------|---------------|
|---8b10==(8)r=(8)-----------------|---------------|
|------------------b9==()r---|-7-------------|
|----------------------------------|---------------|
|----------------------------------|---------------|
|----------------------------------|---------------|


         Am          F
  +E  Q  E +E  E +E  E   E   E    E        E    +E  E  E E
|-(0)----0-(0)---------|-------------------1----(1)--------|
|-(0)----1-(1)-0-(0)---|-------------------1----(1)-1------|
|-(1)-1--2-(2)---------|----------2--------------------2---|
|-(2)-2--2-(2)---------|-----3-----------------------------|
|-(2)-2----------------|-----------------------------------|
|-(0)-0--------------1-|-1-------------------------------0-|
|
|  W                     E   E    E       +E     Q     E E
|----------------------|-----------------------------------|
|----------------------|-----------------------------------|
|----------------------|--------b21r()---------|
|----------------------|--------------------------19---|
|----------------------|-----------------------------------|
|----------------------|-----------------------------------|


  D7/F#                    G                             E
                                                   2/4
  E  E E E +E  E  E    E    E  S S +E  E +E  Q.      E E E E
|--------2-(2)-----------|------------------------|------------||
|--------1-(1)-1---------|------------------------|--0---------||
|------2-------2---------|-------0-(0)-0-(0)-0----|--0---1-----||
|----0------------0------|-------0-(0)-0-(0)-0----|--0---2-----||
|----------------------0-|-----2------------------|------2-----||
|-2----------------------|--3---------------------|------------||
|
|           ~~~             ~~~
| E  E E E  Q     Q         Q.         E  H          E E E E
|------------------------|------------------------|------------||
|----------20------------|------------------------|-12---------||
|----------------19b21---|-19---------------------|------9-----||
|---19---x---------------|-------------9s12-------|------------||
|------------------------|------------------------|------------||
|------------------------|------------------------|------------||


 1st Verse
  Am                   Fm7     Bb           N.C.
 4/4
   E e   E   E +E  E e E   E E Q  +E         E  S S  E
|----5-------5-(5)---5---|------------------------------|
|----5-------5-(5)---5---|------------------------------|
|----5-------5-(5)-5-5-8-|---8-7--(7)-------------------|
|--7-------------------6-|---6-8--(8)-----------5-5--7--|
|----------------------8-|---8-8--(8)--------7----------|
|------------------------|-----6--(6)-------------------|
|
|                                         ~~~~~~~~~~~~~~
|  Q    +Q      H          H       S      S  E  E    E
|------------------------|------------------------------|
|-10---(10)\-------------|------------------------------|
|--9----(9)\-------------|--------19b21==19-19-19---19r-|
|-10---(10)\-------------|------------------------------|
|------------------------|------------------------------|
|------------------------|------------------------------|


  Am                               FmBb       N.C.
   E E  E           E  E E E E   E E Q          E   E   S   S  E
|-------5-----------5--5-5-5---|--------------------------------------|
|-------5-----------5--5-5-5---|--------------------------------------|
|-------5-----------5--5-5-5---|---8-7------------------5---5---------|
|------------------------------|---6-8------------------5---5--7------|
|----------------------------8-|---8-8----------8--/7-----------------|
|--5-5-------------------------|-----6--------------------------------|
|
|  Q    S      +S   E  Q   Q     Q   E  E      +Q      +S   S  E
|------------------------------|--------------------------------------|
|-20---------------------------|-------20b22==(20)r===(20)p17---------|
|------19pb21r(19)p17----------|------------------------------19b21r==|
|---------------------19-------|--------------------------------------|
|------------------------------|--------------------------------------|
|------------------------------|--------------------------------------|


  Am                            FmBb
    E      e   E  E E E E E   E E Q  +E  E S S E
|----------5------5-5-5-5---|--------------------|
|----------5------5-5-5-5---|--------------------|
|----------5------5-5-5-5---|---8-7--(7)---7-7-7-|
|---------------------------|---6-8--(8)---8-8-8-|
|-------------------------8-|---8-8--(8)-8-8-8-8-|
|---5-----------------------|-----6--(6)-6-------|
|
|          ~~~~~~~
|  +S   S  E  +Q    H         W
|---------------------------|--------------------|
|---------------------------|--------------------|
|-(19)p17-------------------|--------------------|
|---------19-(19)-----------|--------------------|
|---------------------------|--------------------|
|---------------------------|--------------------|


  Fm7    Bb         Fm7      Bb     Fm7   Bb
   Q   E  E  +E   E  Q     E  Q   E  E  E  E  E
|-----------------------|------------------------||
|-----------------------|------------------------||
|--8------7--(7)-----8--|-----7------8-----7-----||
|--6------8--(8)-----6--|-----8------6-----8-----||
|--8---8--8--(8)--8--8--|--8--8---8--8--8--8--8--||
|---------6--(6)--------|-----6------------6-----||
|
|  Q   E  E  +E   E  Q     E  Q   E  E  E  E  E
|-----------------------|------------------------||
|-16-----15-(15)----16--|----15-----16----15-----||
|-15-----15-(15)-15-15--|-15-15--15-15-15-15-15\-||
|-----17----------------|-17---------------------||
|-----------------------|------------------------||
|-----------------------|------------------------||


 Chorus
  C               Dsus2
   E E E E +E  Q  E   E  E  E      E   E        E  E  E
|-------------------|-------0---------------------------|
|-------------------|----3---------3---------------3----|
|------0------------|-2----------------2----------------|
|----2------------0-|---------------------------0-----0-|
|--3-----2-(2)-3----|-----------------------------------|
|-------------------|-----------------------------------|
|
|                                      |--3--|
|  Q   Q    H         E  E  E     +E   S  S  S  e  e  e
|-------------------|-----------------------------------|
|-13----------------|-----------------------------------|
|-12----------------|------19b20r(19)-17h19p17----17-19-|
|-14----------------|---17---------------------19-------|
|-------------------|-----------------------------------|
|-------------------|-----------------------------------|


  G7                     E          Am    G  F
   E      E  E E  +Q   E E   +E  Q  E +E  Q  E
|--------------1--(1)----0-|-(0)----0-(0)------|
|------------3-----------0-|-(0)-3--1-(1)-0----|
|------------------------1-|-(1)-1--2-(2)-0----|
|---------3--------------2-|-(2)----2-(2)-0----|
|--2-----------------------|--------0-(0)----3-|
|--------------------------|--------------3--1-|
|
|         ~~~~~~~~~~~~
|  E     +Q.      +H          W
|--------------------------|-------------------|
|--------------------------|-------------------|
|-19b21r(19)-----(19)------|-------------------|
|--------------------------|-------------------|
|--------------------------|-------------------|
|--------------------------|-------------------|


                           D7
  E  E   E  E  +E  E e E   E  E   E  E  +E  E E E
|-----------1--(1)-------|--------2--2--(2)-2-----|
|-----------1--(1)-1-----|-3--1---1--1--(1)-1-----|
|--------2---------2-2---|-2--2-------------------|
|----3---------------3---|--------------------0---|
|-3----------------------|----------------------0-|
|-1--------------------2-|------------------------|
|
|               ~~~~                     ~~~~
| E  e   Q      Q.     E   E  e   Q      Q.     E
|------------------------|------------------------|
|------------------------|------------------------|
|----------------|----------------|
|---19-------------------|---19-------------------|
|------------------------|------------------------|
|------------------------|------------------------|


  G                                     G7    D7   G7
  Q  a  E    E   S  S E  S      S   E     e E  e E Q  E E
|-------------------------------------|---1----2---1-------|
|-------------------------------------|---0----1---0-------|
|---------------------0--2p=====0-----|---0----2---0-------|
|------------0---0h=2---------------2-|-----------------0--|
|----0h=2-----------------------------|--------------------|
|-3-----------------------------------|--------------------|
|
| Q     Q       +Q       S     +E.        E E  E E H
|-------------------------------------|--------------------|
|------20b22r==(20)-------------------|-/12---10---8-------|
|-----------------------19b21r(19)\---|--------------------|
|-------------------------------------|-/12---10---9-------|
|-------------------------------------|--------------------|
|-------------------------------------|--------------------|


  C              Dsus2
  E E E E +E  Q  E   E E Q   E E   E E
|------------------|-----0-------------|
|------------------|---3-----3---------|
|-----0------------|-2---------2-------|
|---2------------0-|---------------0---|
|-3-----2-(2)-3----|-----------------3-|
|------------------|-------------------|
|
| W                  Q   E E E E a E E
|------------------|-------------------|
|------------------|-----------------8-|
|------------------|-----------5-7s9---|
|------------------|-------5h7---------|
|------------------|-------------------|
|------------------|-------------------|


  G                      E                       Am
   Q      Q    E  E   E  E           +E    Q     E +E  Q  E
|---------3----3--3------0--------|--(0)---------0-(0)------|
|---------3----3--3------0--------|--(0)---------1-(1)-0----|
|---------0----0--0------1--------|--(1)---1-----2-(2)------|
|---------3----3--3------2--------|--(2)---2-----2-(2)------|
|--2---------------------2--------|--(2)---2----------------|
|------------------------0--------|--(0)---0--------------1-|
|
|         ~~~~~~~~~~~~~~~
|  Q      Q   +Q     +E.    S        +E   +E   Q    H
|-10b12--10--(10)---(10)---10b12==|=(10)r(10)\--------------|
|---------------------------------|-------------------------|
|---------------------------------|-------------------------|
|---------------------------------|-------------------------|
|---------------------------------|-------------------------|
|---------------------------------|-------------------------|


  F                   D7/F#
  E E E E +E  E E E   E  E  E  E  +E   E E E
|-------1-(1)-------|----------2--(2)--------|
|-------1-(1)-1-----|----------1--(1)--1-----|
|-----2---------2---|-------2----------2-----|
|---3---------------|----0---------------0---|
|-------------------|----------------------0-|
|-1---------------0-|-2----------------------|
|
| W                   E  E  E  E  +E   Q   E
|-------------------|------------------------|
|-------------------|---------10-(10)--------|
|-------------------|------10---------10-----|
|-------------------|---10-------------------|
|-------------------|------------------------|
|-------------------|------------------------|


  G                                         E
                                      2/4
  E   S S +E   E +E   Q.                E E  E E
|------------------------------------|-----------||
|------------------------------------|--0--------||
|-------0-(0)--0-(0)--0--------------|--0----1---||
|-------0-(0)--0-(0)--0--------------|--0----2---||
|-----2------------------------------|-------2---||
|-3----------------------------------|-----------||
|
| E   E    E   E  E   E   S  S  S  S    e e  e E
|------------------------------------|-----------||
|---------12-----12------12-12-------|-12---12---||
|------------------------------------|-------9---||
|---/12-------12-----12--------12-12-|-----------||
|------------------------------------|-----------||
|------------------------------------|-----------||


 2nd Verse
  Am                Fm7     Bb      N.C.
 4/4
   E  e E E +E  E e E   E E Q  +E   E S S E
|-----5---5-(5)---5---|---------------------|
|-----5---5-(5)---5---|---------------------|
|-----5---5-(5)-5-5-8-|---8-7--(7)----------|
|--7----------------6-|---6-8--(8)----5-5-7-|
|-------------------8-|---8-8--(8)--7-------|
|---------------------|-----6--(6)----------|
|
|  H.             Q     H       E   E E   E
|---------------------|---------------5-----|
|-10------------------|-------------5-----5-|
|--9------------------|---------7b9---------|
|-10------------------|---------------------|
|---------------------|---------------------|
|---------------------|---------------------|


  Am                     FmBb     N.C.
  E    E E E E E E E   E E Q       E   E  S  S E
|--------5-5-5-5-5---|----------------------------|
|--------5-5-5-5-5---|----------------------------|
|--------5-5-5-5-5---|---8-7--------------5--5----|
|--------------------|---6-8--------------5--5-7--|
|------------------8-|---8-8-------8--/7----------|
|-5----5-------------|-----6----------------------|
|
| ~~~~
| H.             Q     E E Q      +Q     +Q
|--------------------|-----8b10===(8)r===(8)------|
|-8b10---------------|---5------------------------|
|--------------------|----------------------------|
|--------------------|----------------------------|
|--------------------|----------------------------|
|--------------------|----------------------------|


  Am                   FmBb
  E  e E E E E E E   E E Q  +E       E  S  S E
|----5---5-5-5-5---|-----------------------------|
|----5---5-5-5-5---|-----------------------------|
|----5---5-5-5-5---|---8-7--(7)---------7--7-7---|
|------------------|---6-8--(8)---------8--8-8---|
|----------------8-|---8-8--(8)------8--8--8-8---|
|-5----------------|-----6--(6)------6-----------|
|
| ~~                              ~~~~~~~~~~
| H.           Q     H       S    E.   +E    S S
|-5----------------|-----------------------------|
|------------------|-----------------------------|
|------------------|---------7pb8r7----(7)p==5---|
|------------------|-----------------------------|
|------------------|-----------------------------|
|------------------|-----------------------------|


  Fm7     Bb        Fm7        Bb     Fm7  Bb
    Q   E  E  +E  E  Q      E   Q   E  E E  E E
|-----------------------|------------------------||
|-----------------------|------------------------||
|---8------7--(7)----8--|-------7------8----7----||
|---6------8--(8)----6--|-------8------6----8----||
|---8---8--8--(8)-8--8--|---8---8---8--8-8--8-8--||
|----------6--(6)-------|-------6-----------6----||
|
|   Q.     E  +Q     Q     +E   Q   E  Q    E E
|-----------------------|------------------------||
|-/16-----15-(15)---16--|-(16)-15--15-16---16----||
|-/15-----15-(15)---15--|-(15)-15--15-15---15----||
|-----------------------|------------------------||
|-----------------------|------------------------||
|-----------------------|------------------------||


 Guitar Solo
  C                   Dsus2
  E   E E  E  +E   Q   E     E   E E  E   E   E E  E
|------------------------|---------0-----------------|
|------------------------|-------3----3---------3----|
|-------0----------------|---2------------2----------|
|-----2----------------0-|--------------------0----0-|
|-3--------2--(2)--3-----|---------------------------|
|------------------------|---------------------------|
|
| E   Q    E  +E   Q   E    +E   Q    E  +E   Q    E
|---/12---10-(10)-----10-|-(10)-12---10-(10)---------|
|-----------------13-----|-------------------13---12-|
|------------------------|---------------------------|
|------------------------|---------------------------|
|------------------------|---------------------------|
|------------------------|---------------------------|
|
| Gtr III
| E   Q    E  +E   Q   E    +E   Q    E  +E   Q    E
|------------------------|---------------------------|
|------------------------|---------------------------|
|----/9----7--(7)--5---7-|--(7)--5----4--(4)---------|
|------------------------|--------------------7----5-|
|------------------------|---------------------------|
|------------------------|---------------------------|


  G7                       E             Am      G   F
    E     E E  E  +Q     E  E    +E   Q   E  +E   Q   E
|--------------1--(1)-------0-|--(0)------0--(0)--------|
|-----------3---------------0-|--(0)--3---1--(1)--0-----|
|---------------------------1-|--(1)--1---2--(2)--0-----|
|---------3-----------------2-|--(2)------2--(2)--0-----|
|---2-------------------------|-----------0--(0)------3-|
|-----------------------------|-------------------3---1-|
|
|  +E     Q    E  +E   Q    E    +E   Q   E  +E   Q   E
|--------13---12-(12)-10------|-------------------------|
|-(12)---------------------13-|-(13)-12--10-(10)-12--13-|
|-----------------------------|-------------------------|
|-----------------------------|-------------------------|
|-----------------------------|-------------------------|
|-----------------------------|-------------------------|
|
|  +E     Q    E  +E   Q    E    +E   Q   E  +E   Q   E
|-----------------------------|-------------------------|
|-----------------------------|-------------------------|
|-------/14---12-(12)-10----9-|--(9)--------------------|
|--(5)/-----------------------|------12--10-(10)--9---7-|
|-----------------------------|-------------------------|
|-----------------------------|-------------------------|


                              D7
    E  E E E +E  E  e     E     E   E E E    +E   E E        E
|----------1-(1)------------|---------2-2----(2)--2------------|
|----------1-(1)-1----------|---3---1-1-1----(1)--1------------|
|--------2-------2--2-------|---2---2--------------------------|
|------3------------3-------|-----------------------0----------|
|---3-----------------------|--------------------------------0-|
|---1---------------------2-|----------------------------------|
|
|  +H         E  E  E  a  E    +Q     E E    +Q     S    +S  E
|------------------12-12s14-|-(14)\-----7b8==(7)r---7pb8r(7)p5-|
|-(13)-------13h15----------|----------------------------------|
|---------------------------|----------------------------------|
|---------------------------|----------------------------------|
|---------------------------|----------------------------------|
|---------------------------|----------------------------------|
|
|  +H         E  E  E     E    +Q     E E    +Q.             E
|-------------------------5-|--(5)-----------------------------|
|---------------------------|----------------------------------|
|-------------------5-------|-----------7b8==(7)r------------5-|
|--(7)--------7--9----------|----------------------------------|
|---------------------------|----------------------------------|
|---------------------------|----------------------------------|


  G                               G7   D7   G7
  Q   a E   E  S S  E    S S  E    e E  e E Q  E E
|-------------------------------|--1----2---1------|
|-------------------------------|--0----1---0------|
|-------------------0----2p0----|--0----2---0------|
|-----------0--0h2------------2-|----------------0-|
|-----0h2-----------------------|------------------|
|-3-----------------------------|------------------|
|
| Q.        E  E    E    E    E    E E  E E H
|-7-----------------------------|------------------|
|-------------12--------12------|-12---10---8------|
|-------------------------------|------------------|
|---------/12------12--------12-|-12---10---9------|
|-------------------------------|------------------|
|-------------------------------|------------------|
|
| Q.        E  S E    S  S S  E    E E  E E H
|-------------------------------|------------------|
|-------------------------------|------------------|
|-7--------------7----7--9p7--7-|--7----7----------|
|--------------9----------------|-----------9------|
|-------------------------------|------------------|
|-------------------------------|------------------|


  C              Dsus2
  E E E E +E  Q  E   E E     Q    E E E E
|------------------|---------0------------|
|------------------|---3----------3-------|
|-----0------------|-2--------------2-----|
|---2------------0-|------------------0---|
|-3-----2-(2)-3----|--------------------3-|
|------------------|----------------------|
|
| W                  E E    +Q    e e E E
|------------------|----------------------|
|------------------|----------------------|
|------------------|---7b9==(7)r--7-5-7s9-|
|------------------|----------------------|
|------------------|----------------------|
|------------------|----------------------|


  G            E               Am
  Q   Q  E E E E       +E   Q  E    +E   E +E  E
|-----3--3-3---0-----|-(0)-----0----(0)----------|
|-----3--3-3---0-----|-(0)-----1----(1)--0-(0)---|
|-----0--0-0---1-----|-(1)--1--2----(2)----------|
|-----3--3-3---2-----|-(2)--2--2----(2)----------|
|-2------------2-----|-(2)--2--------------------|
|--------------0-----|-(0)--0------------------1-|
|
| ~~                        ~            ~~~~~~~~
| H.         E E       +E   Q  E    +E   Q     E
|--------------------|---------------------------|
|--------------8b10==|=(8)r-8--------------------|
|-7------------------|---------7b9==(7)r-7-----5-|
|--------------------|---------------------------|
|--------------------|---------------------------|
|--------------------|---------------------------|


  F                     D7/F#
   E  E E E +E  E E E   E E E E +E  E E E
|---------1-(1)-------|-------2-(2)-------|
|---------1-(1)-1-----|-------1-(1)-1-----|
|-------2---------2---|-----2-------2-----|
|-----3---------------|---0-----------0---|
|---------------------|-----------------0-|
|--1----------------0-|-2-----------------|
|
|  ~~~                        ~~~~~~
| +W                    Q   e E +H
|---------------------|-------------------|
|---------------------|-------------------|
|-(5)-----------------|-----5-5-(5)-------|
|---------------------|-------------------|
|---------------------|-------------------|
|---------------------|-------------------|


  G                                   E
                                 2/4
  E S S  +E  E +E      Q.         E E E E
|-------------------------------|----------||
|-------------------------------|-0--------||
|-----0--(0)-0-(0)-----0--------|-0---1----||
|-----0--(0)-0-(0)-----0--------|-0---2----||
|---2---------------------------|-----2----||
|-3-----------------------------|----------||
|
| Q       Q     S   S  Q     E    W
|-------------------------------|----------||
|-------/12----12--12-12--------|----------||
|-------------------------------|----------||
|-------/12----12--12-12---(12)-|----------||
|-------------------------------|----------||
|-------------------------------|----------||


 Guitar Solo 2
  Am                     Fm7          Bb         N.C.
 4/4
  E e  E     E  +E  E  e E    E  E     Q     +E  E     S S E
|---5--------5--(5)----5---|---------------------------------|
|---5--------5--(5)----5---|---------------------------------|
|---5--------5--(5)-5--5-8-|-----8-----7-----(7)-------------|
|-7----------------------6-|-----6-----8-----(8)-------5-5-7-|
|------------------------8-|-----8-----8-----(8)-7-----------|
|--------------------------|-----------6-----(6)-------------|
|
|      ~~~~~~~~~~~~~~~~~~~~~~~~~~~~~~~~~~~~~~~~~~~~~~~~~~
| Q    Q        +Q     Q      E.    S  E.  S  E.    S  Q
|--------------------------|---------------------------------|
|-----20b22====(20)---20---|-20----20-20--20-20----20-20-----|
|--------------------------|---------------------------------|
|--------------------------|---------------------------------|
|--------------------------|---------------------------------|
|--------------------------|---------------------------------|


  Am
   E    E     E  E     E     E  E    E
|-------------5--5-----5-----5--5----------|
|-------------5--5-----5-----5--5----------|
|-------------5--5-----5-----5--5----------|
|------------------------------------------|
|------------------------------------8-----|
|--5----5----------------------------------|
|
|  S  E    S  E  S  S  S  S  E  S  E    S
|------------------------------------------|
|-20-20---20-20-20-20-20-20-20-20-20---20--|
|------------------------------------------|
|------------------------------------------|
|------------------------------------------|
|------------------------------------------|


             Fm7   Bb          N.C.            Am
   E       E  E     Q           E  E     S S    E e  E    E  E    E  E    E
|--------------------------------------------|----5-------5--5----5--5------|
|--------------------------------------------|----5-------5--5----5--5------|
|-------------8-----7--------------------5-5-|----5-------5--5----5--5------|
|-------------6-----8--------------------5-5-|------------------------------|
|-------------8-----8-----------8-/7---------|----------------------------8-|
|-------------------6------------------------|--5---------------------------|
|
|                                               ~~
|                      |--3--|
|  S  +S   E  E     E  S  S  S  e  E     E      Q    Q       Q       Q
|--------------------------------------------|------------------------------|
|-20r(20)-17----------------------------17---|-20---20------20------20------|
|------------19b21-19-17h19p17----19b21------|------19b21---19b21---19b21---|
|------------------------------19------------|------------------------------|
|--------------------------------------------|------------------------------|
|--------------------------------------------|------------------------------|


     Fm7   Bb                  Fm7     Bb         Fm7
   E  E     Q  +E  E  S  S E   Q     E  E  +E   E  Q
|----------------------------|------------------------|
|----------------------------|------------------------|
|-----8-----7--(7)----7--7-7-|-8--------7--(7)-----8--|
|-----6-----8--(8)----8--8-8-|-6--------8--(8)-----6--|
|-----8-----8--(8)-8--8--8-8-|-8-----8--8--(8)--8--8--|
|-----------6--(6)-6---------|----------6--(6)--------|
|
|           ~~~~~~~
|  E  S  s  Q   Q     Q        E  E  E  E  +E   E  Q
|----------------------------|------------------------|
|----------------------------|---------15-(15)----16--|
|-19p17----17----------------|------15---------15-----|
|-------19-----19------------|---15-------------------|
|--------------------19\-----|------------------------|
|----------------------------|------------------------|


        Bb     Fm7     Bb     N.C.
   E     Q   E  E    E  E E    Q  S S E   S  S  E    e E
|---------------------------|----------------------------|
|---------------------------|----------------------------|
|--------7------8-------7---|-----0-0-2---------0--------|
|--------8------6-------8---|--x--2-2-----0h=2-------2---|
|--8-----8---8--8----8--8-8-|--3-------------------------|
|--------6--------------6---|--------------------------3-|
|
|                              ~~~~~~~~~~~~~~
|  E  a  Q   E  Q       Q      H         +E     Q.
|---------------------------|----------------------------|
|----16s18-----18b20---18---|-17--------(17)---20b22r====|
|-15--------15--------------|----------------------------|
|---------------------------|----------------------------|
|---------------------------|----------------------------|
|---------------------------|----------------------------|


   +H     a   E   E      e   E    +H       E    E  E  E
|------------------------------|----------------------------|
|------------------------------|----------------------------|
|------------------------------|----------------------------|
|-----------------0------2---3-|--(3)------3----2--0--2-----|
|---------0h==2----------------|----------------------3-----|
|--(3)-------------------------|----------------------------|
|
|   ~~~~~~~~~~~~~            ~~~~~~~~~~~~~~~~~
|  +H        +E   E     +E   E    +H      +E    E  E  E
|------------------------------|----------------------------|
|-(20)------(20)---------------|----------------------------|
|----------------19b21r(19)-17-|-(17)----(17)-----17-19b21==|
|------------------------------|--------------/19-----------|
|------------------------------|----------------------------|
|------------------------------|----------------------------|


                                     C
   +E    S S  E     E  +E  S S   E    E
|---------------------------------------||
|---------------------------------------||
|-------------0-----------------------0-||
|--(2)---0h2---------------------0----2-||
|--(3)---------------------0h2--------3-||
|-------------------3--(3)--------------||
|
|                   ~~~~~~~~~~~~~~~~~
|  +E    E    E     E  +Q       +E    E
|---------------------------------------||
|-------20---------------------------/5-||
|-(19)r------19b21-19-(19)-----(19)\----||
|------------------------------------/5-||
|---------------------------------------||
|---------------------------------------||
|
| Gtr III
|   W
|---------------------------------------||
|---------------------------------------||
|---------------------------------------||
|---------------------------------------||
|---------------------------------------||
|---------------------------------------||


 Outro
                                           H.=H
  C    N.C.
                                                     |-3-|
  +Q   E. S a E E e E   +H      a E E e  E   +H      Q Q Q
|---------------------|--------------------|---------5-3-1--|
|---------------------|--------------------|----------------|
|-(0)--0--0---0-0-----|--------------------|----------------|
|-(2)--2--2-0h2---2---|-------------0-2--3-|-(3)------------|
|-(3)-----------------|---------0h2--------|----------------|
|-------------------3-|-(3)----------------|----------------|
|
|                                                    |-3-|
| +H          E E E E   +Q.   E   E E E  E   +Q.   E Q Q Q
|-------------------3-|-(3)-------5s3---/5-|-(5)------------|
|-(5)---------6-5-----|--------------------|----------------|
|-------------------4-|-(4)-------5s4-x-/5-|-(5)-----5-3-2--|
|-(5)---------7-5-----|--------------------|----------------|
|---------------------|--------------------|----------------|
|---------------------|--------------------|----------------|
|
|                                                    |-3-|
|  W                     W                    H      Q Q Q
|---------------------|--------------------|----------------|
|---------------------|--------------------|----------------|
|---------------------|--------------------|----------------|
|---------------------|--------------------|---------3-2-0--|
|---------------------|--------------------|----------------|
|---------------------|--------------------|----------------|


                C/E
  |-3-| |-3-|
  Q Q Q Q Q Q   W          +W
|-0-----------|----------|--------*|
|---3-1-0-----|----------|--------*|
|---------2-0-|----------|--------*|
|-------------|----------|--------*|
|-------------|----------|--------*|
|-------------|-0--------|-(0)----*|
|
| |-3-| |-3-|
| Q Q Q Q Q Q   W          +W
|-------------|----------|--------*|
|-------------|----------|--------*|
|-0-----------|----------|--------*|
|---3-2-0-----|-2--------|-(2)----*|
|---------3-2-|-3--------|-(3)----*|
|-------------|-0--------|-(0)----*|
|
| |-3-| |-3-|
| Q Q Q Q Q Q   W          +W
|-------------|----------|--------*|
|-------------|----------|--------*|
|-------------|----------|--------*|
|-------------|-2--------|-(2)----*|
|-3-2-0-------|-3--------|-(3)----*|
|-------3-1-0-|-0--------|-(0)----*|            
Submit corrections


        I Looked Away lessons Hard to play? Try these video lessons and learn fast I Looked Away lessons
        
↑ Back to top | Tablatures and chords for acoustic guitar and electric guitar, ukulele, drums are parodies/interpretations of the original songs. You may use it for private study, scholarship, research or language learning purposes only