Home » D » Deluge »

Deluge - Crazy Tabs

Artists:  A B C D E F G H I J K L M N O P Q R S T U V W X Y Z # 

Crazy Tabs

(ver. 2) Click to play this song!
Deluge
Note-The amount of times to play each note or chord is not exact just a guide.

took one note for the solo from:

Full intro:

Chorus most of it:

Key:C

Intro:

e|--------8---7---10----8--  --8---7----12-----10----8-----|
B|-------------------------  ------------------------------|
G|-------9-9s7-7s10-10s9-9-x4-9-9s7-7s12--12s10--10s9-9----|x1
D|-------------------------  ------------------------------|
A|-------------------------  ------------------------------|
E|-------------------------  ------------------------------|


e|--------8---7----10----8----12--12-----10--10----8---7----10----8---|
B|--------------------------------------------------------------------|
G|-------9-9s7-7s10--10s9-9s12--12--12s10--10--10s9-9s7-7s10--10s9-9--|
D|--------------------------------------------------------------------|
A|--------------------------------------------------------------------|
E|--------------------------------------------------------------------|

verse:A A A D A
e|------------------------------------|
B|------------------------------------|
G|--------------------77--------------|
D|--77----77----77----77----77--------|
A|--77----77----77----55----77--------|
E|--55----55----55----------55--------|

Pre Chorus:E D
e|--------------------------------|
B|--------------------------------|
G|--9------7----------------------|
D|--9------7----------------------|
A|--7------5----------------------|
E|--------------------------------|

Chorus:
e|--------------------------------|
B|--------------------------------|
G|--------------------------------|x2
D|--------------------------------|
A|------------------------3-------|
E|--5-0-3--5-0-3--5-0-3--5-5-3----|

e|----------------------------------------------------|
B|----------------------------------------------------|
G|--------10-9-5-4---------5-7-4----------------------|x2
D|--7------x-x-x-x--7------x-x-x-5-7------------------|
A|--7------8-7-3-2--7------3-5-2-5-7------------------|
E|--5---------------5------------3-5------------------|

Soloish part:They dont play it like this but i like it
e|----------------------------------------------------|
B|--------10v--------10-8v---------10v---------10s12v-|
G|-------9---------9------------9-----------9---------|x5
D|---7-10------7-10---------7-10--------7-10----------|
A|----------------------------------------------------|
E|----------------------------------------------------|
            
Submit corrections

↑ Back to top | Tablatures and chords for acoustic guitar and electric guitar, ukulele, drums are parodies/interpretations of the original songs. You may use it for private study, scholarship, research or language learning purposes only