Home » D » Deluge »

Deluge - Crazy Bass

Artists:  A B C D E F G H I J K L M N O P Q R S T U V W X Y Z # 

Crazy Bass

(ver. 1) Click to play this song!
Deluge
-------------------------------------------------------------------------------
-------------------------------------------------------------------------------



Tuning:Standard EADG

Intro:
G|------------------------------------------------------------------------------|
D|------------------------------------------------------------------------------|
A|------------------------5---------------7-------------------------------------|
E|--5-3-0---0-0---5-0-3-----5-0---5-0-3-----5-0---0-3-0---5-0-3---0-0---0-0-0-0-|


Verse 1:
G|----------------------------------------------------------------|
D|----------------------------------------------------------------|
A|------------------5---------5---------------7-------------------|
E|--5-0-3---0-0---3---0---0-0---5-0---5-0-3-----5-0---0-3-0---5-5-|


Verse 2:
G|------------------------------|
D|------------------------------|
A|---------------5-5------------|
E|---5-5---5-5---------5-5------|


    S   S
G|---------|
D|---------|
A|------5--|
E|--0------|


Chorus:x2 Play this part twice then play the next part of the chorus.
G|----------------------------|
D|----------------------------|
A|----------------------3-2---|
E|--5-0-3-5-0-3-5-0-3-5-----3-|


G|------------------------------------------------------------------------------------|
D|------------------------------------------------------------------------------------|
A|--------------8-7-------------------3-5-2-3-------------8-7-----------------3-5-2---|
E|--5-0-3-5-0-3-----8-7---5-0-3-5-0-3---------5-0-3-5-0-3-----8-7-5-0-3-5-0-3-------3-|


PRE-VERSE:
G|----------------------------|
D|----------------------------|
A|----------------------3-2---|
E|--5-0-3-5-0-3-5-0-3-5-----3-|


G|--------------------------------|
D|--------------------------------|
A|----------------------3-2-------|
E|--5-0-3-5-0-3-5-0-3-5-----3-5-5-|


Verse 2:It's really Verse 3 but verse 2 lyrics reapeated.
G|----------------------|
D|----------------------|
A|--------5-5-----------|
E|--5-5---------5-5-----|

    S   S
G|---------|
D|---------|
A|------5--|
E|--0------|


Chorus:x2 Play this part twice then play the next part of the chorus.
G|----------------------------|
D|----------------------------|
A|----------------------3-2---|
E|--5-0-3-5-0-3-5-0-3-5-----3-|


G|--------------------------------------------------------------------------------------|
D|--------------------------------------------------------------------------------------|
A|--------------8-7-------------------3-5-2-3-------------8-7-----------------3-5-2-----|
E|--5-0-3-5-0-3-----8-7---5-0-3-5-0-3---------5-0-3-5-0-3-----8-7-5-0-3-5-0-3-------3-5-|


Pre-Bridge:x2
G|----------------------------|
D|----------------------------|
A|----------------------3-2---|
E|--5-0-3-5-0-3-5-0-3-5-----3-|


Bridge:It's all the A note but the bassist does do different variations at certain times.
Feel free to mess around with this part but this is how I play it sometimes,
you're going to have to figure out the timing on your own though sorry:) However 
the tabs in this part
start when he starts singing "Spirit of God."
G|------------------------------------------------------------------------------------|
D|------------------------------------------------------------------------------------|
A|------------------------------------------------------------------------------------|
E|--5-----3-5--------0-5---------3-5-----5------5------5------------------------------|


G|---------------------------------------------------------------------------------|
D|---------------------------------------------------------------------------------|
A|---------------------------------------------------------------------------------|
E|--3-5--3-5-----5-5-3-5-5-3-0-----5-5-3-5-5-3-0-5--5-5-3-5-5-0-5---5-5-3-5-5-0-5\-|


Pre-Chorus: Where it's only guitar and the crowd is singing.Play the staccatos right 
the drums enter.
           O O O O
G|------------------|
D|------------------|
A|------------------|
E|--5-5----5-5-5-5--|


Ending:                                                                               H
G|--------------------------------------------------------------------------------------------|
D|--------------------------------------------------------------------------------------------|
A|--------------8-7-------------------3-5-2-3-------------8-7-----------------3-5-3-----------|
E|--5-0-3-5-0-3-----8-7---5-0-3-5-0-3---------5-0-3-5-0-3-----8-7-5-0-3-5-0-3-------3-5---5\--|

| /  slide up then down quickly
| \  slide down
| h  hammer-on
| p  pull-off
| ~  vibrato
| +  harmonic
| x  Mute note
| O  Play staccato(Quickly)
| H  Hold Note
===============================================================================
Quick note. If you have a 5 string bass instead of play D on the A string, play
the D on the B string during the Verse 2 and verse 3.
            
Submit corrections

↑ Back to top | Tablatures and chords for acoustic guitar and electric guitar, ukulele, drums are parodies/interpretations of the original songs. You may use it for private study, scholarship, research or language learning purposes only