» » »

Default - Wasting My Time Tabs

Artists:  A B C D E F G H I J K L M N O P Q R S T U V W X Y Z # 

Wasting My Time Tabs

(ver. 3) Click to play this song!
Default
 Rating:
4/5 (4 votes)

 Wasting My Time lessons Tabs too difficult? Try these video lessons and learn fast
 
                Intro
E----0-----5--------0-----5p0--------0-----5--------0-------------
B------3-3---3p0------3-3-----3p0------3-3---3p0------3-----------
G--2--------------2----------------2--------------2---------------
D-----------------------------------------------------------------
A-----------------------------------------------------------------
E-----------------------------------------------------------------

  Verse 1  (2X)
E----0-----5--------0-----5--------0-----5--------0---------------
B------3-3---3p0------3-3---3p0------3-3---3p0------3-------------
G--2--------------2--------------2--------------2-----------------
D-----------------------------------------------------------------
A-----------------------------------------------------------------
E-----------------------------------------------------------------

  Chorus 1
E-----------------------------------------------------------------
B-----------------------------------------------------------------
G-----------------------------------------------------------------
D----------------------------------------7---------------7--------
A--5-5-5-5h7-7-5-5-5-5-5h7-7-5-9-9-9-7h9---9h7-9-9-9-7h9---9h7----
E--3-3-3---------3-3-3---------7-7-7-----------7-7-7--------------


E-----------------------------------------------------------------
B-----------------------------------------------------------------
G-----------------------------------------------------------------
D-----------------------------------------------------------------
A--5-5-5-5h7-7-5-5-5-5-5h7-7-5--7-7-7-7-7-7-7-7-7-----------------
E--3-3-3---------3-3-3----------5-5-5-5-5-5-5-5-5-----------------
                                Again....
  After chorus
E----0-----5--------0-----5p0--------0-----5--------0-------------
B------3-3---3p0------3-3-----3p0------3-3---3p0------3-----------
G--2--------------2----------------2--------------2---------------
D-----------------------------------------------------------------
A-----------------------------------------------------------------
E-----------------------------------------------------------------

  Verse 2  (2X)
E----0-----5--------0-----5--------0-----5--------0---------------
B------3-3---3p0------3-3---3p0------3-3---3p0------3-------------
G--2--------------2--------------2--------------2-----------------
D-----------------------------------------------------------------
A-----------------------------------------------------------------
E-----------------------------------------------------------------

  Chorus 2
E-----------------------------------------------------------------
B-----------------------------------------------------------------
G-----------------------------------------------------------------
D----------------------------------------7---------------7--------
A--5-5-5-5h7-7-5-5-5-5-5h7-7-5-9-9-9-7h9---9h7-9-9-9-7h9---9h7----
E--3-3-3---------3-3-3---------7-7-7-----------7-7-7--------------


E-----------------------------------------------------------------
B-----------------------------------------------------------------
G-----------------------------------------------------------------
D----------------------------------------7---------------7--------
A--5-5-5-5h7-7-5-5-5-5-5h7-7-5-9-9-9-7h9---9h7-9-9-9-7h9---9h7----
E--3-3-3---------3-3-3---------7-7-7-----------7-7-7--------------

 
E-----------------------------------------------------------------
B-----------------------------------------------------------------
G-----------------------------------------------------------------
D-----------------------------------------------------------------
A--7-7-7-7-7-7-7-7-7-7-7-7-7-7------------------------------------
E--5-5-5-5-5-5-5-5-5-5-5-5-5-5------------------------------------
  Again....

E----0-----5--------0-----5p0------------0-----5--------0---------
B------3-3---3p0------3-3-----3p0-(2X)-----3-3---3p0------3-------
G--2--------------2--------------------2--------------2-----------
D-----------------------------------------------------------------
A-----------------------------------------------------------------
E-----------------------------------------------------------------

  Chorus 3
E-----------------------------------------------------------------
B-----------------------------------------------------------------
G-----------------------------------------------------------------
D----------------------------------------7---------------7--------
A--5-5-5-5h7-7-5-5-5-5-5h7-7-5-9-9-9-7h9---9h7-9-9-9-7h9---9h7----
E--3-3-3---------3-3-3---------7-7-7-----------7-7-7--------------


E-----------------------------------------------------------------
B-----------------------------------------------------------------
G-----------------------------------------------------------------
D----------------------------------------7------------------------
A--5-5-5-5h7-7-5-5-5-5-5h7-7-5-9-9-9-7h9---9h7-9-9-9-9-9-9-9-9-9--
E--3-3-3---------3-3-3---------7-7-7-----------7-7-7-7-7-7-7-7-7--


E-----------------------------------------------------------------
B-----------------------------------------------------------------
G-----------------------------------------------------------------
D-----------------------------------------------------------------
A--5-5-5-5h7-7-5-5-5-5-5-5-5-5--9-9-9-9-9-9-9-9-9-9-9-9-----------
E--3-3-3---------3-3-3-3-3-3-3--7-7-7-7-7-7-7-7-7-7-7-7-----------


E-----------------------------------------------------------------
B-----------------------------------------------------------------
G-----------------------------------------------------------------
D-----------------------------------------------------------------
A--5-5-5-5-5-5-5-5-5-5-5-5-5-5--7-7-7-7-7-7-7-7-7-----------------
E--3-3-3-3-3-3-3-3-3-3-3-3-3-3--5-5-5-5-5-5-5-5-5-----------------
                                Again....
  Outro 
E----0-----5--------0-----5p0--------0-----5------------0-----5---
B------3-3---3p0------3-3-----3p0------3-3---3p0------3---3---3---
G--2--------------2----------------2----------------2-------2-2---
D-------------------------------------------------0-----------0---
A-----------------------------------------------------------------
E-----------------------------------------------------------------
            
Submit corrections


        Wasting My Time lessons Hard to play? Try these video lessons and learn fast Wasting My Time lessons
        
↑ Back to top | Tablatures and chords for acoustic guitar and electric guitar, ukulele, drums are parodies/interpretations of the original songs. You may use it for private study, scholarship, research or language learning purposes only