» » »

Default - Deny Tabs

Artists:  A B C D E F G H I J K L M N O P Q R S T U V W X Y Z # 

Deny Tabs

(ver. 3) Click to play this song!
Default
 Rating:
4/5 (7 votes)

 Deny lessons Tabs too difficult? Try these video lessons and learn fast
 
                

Drop D Tuning

Intro
------------------------------------------------------------------------------
------------------------------------------------------------------------------
---12---10-------9----10----9------2---0------4---5---4-----------------------
------------------------------------------------------------------------------
------------------------------------------------------------------------------
-0----0-------10---10----10------3---3------5---5---5-------------------------
                                                                              
Verse 1
------------------------------------------------------------------------------
------------------------------------------------------------------------------
---12---10------2---0-------9----10----9-------9----10----9-------------------
------------------------------------------------------------------------------
------------------------------------------------------------------------------
-0----0-------3---3------10---10----10------10---10----10---------------------
                                                                              
Figure out strumming
------------------------------------------------------------------------------
------------------------------------------------------------------------------
-5---7------------------------------------------------------------------------
-5---7------------------------------------------------------------------------
-3---5------------------------------------------------------------------------
------------------------------------------------------------------------------
                                                                              
Then this part
------------------------------------------------------------------------------
------------------------------------------------------------------------------
-------7----5-----------------7----5p2-------7--------------------------------
-5--3--7----5--3--0-----5--3--7--------3h5-3-7--------------------------------
-5--3--5----3--3--0-----5--3--5--------------5--------------------------------
-5--3----------3--0-----5--3--------------------------------------------------
                                                                              
Verse 2
------------------------------------------------------------------------------
------------------------------------------------------------------------------
-7-7---7-7---10-9-5-----------------------------------------------------------
-7-7---7-7---10-9-5-----------------------------------------------------------
-5-5---5-5---8--7-3-----------------------------------------------------------
------------------------------------------------------------------------------
                                                                              
Chorus
------------------------------------------------------------------------------
------------------------------------------------------------------------------
-------7----5----------------7----5----------------7----5----------------7----
-5--3--7----5--3--0----5--3--7----5--3--0----5--3--7----5--3--0----5--3--7----
-5--3--5----3--3--0----5--3--5----3--3--0----5--3--5----3--3--0----5--3--5----
-5--3----------3--0----5--3----------3--0----5--3----------3--0----5--3-------
                                                                              

------------------------------------------------------------------------------
------------------------------------------------------------------------------
-5p2-------7------------------------------------------------------------------
-----3h5-3-7------------------------------------------------------------------
-----------5------------------------------------------------------------------
------------------------------------------------------------------------------  

Verse 3
------------------------------------------------------------------------------
------------------------------------------------------------------------------
-7-7---7-7---10-9-5-----------------------------------------------------------
-7-7---7-7---10-9-5-----------------------------------------------------------
-5-5---5-5---8--7-3-----------------------------------------------------------
------------------------------------------------------------------------------  

Chorus
------------------------------------------------------------------------------
------------------------------------------------------------------------------
-------7----5----------------7----5----------------7----5----------------7----
-5--3--7----5--3--0----5--3--7----5--3--0----5--3--7----5--3--0----5--3--7----
-5--3--5----3--3--0----5--3--5----3--3--0----5--3--5----3--3--0----5--3--5----
-5--3----------3--0----5--3----------3--0----5--3----------3--0----5--3-------
                                                                              

------------------------------------------------------------------------------
------------------------------------------------------------------------------
-5p2-------7------------------------------------------------------------------
-----3h5-3-7------------------------------------------------------------------
-----------5------------------------------------------------------------------
------------------------------------------------------------------------------
                            
                                                  
Play intro 4 times
------------------------------------------------------------------------------
------------------------------------------------------------------------------
---12---10-------9----10----9------2---0------4---5---4-----------------------
------------------------------------------------------------------------------
------------------------------------------------------------------------------
-0----0-------10---10----10------3---3------5---5---5-------------------------
                           
Chorus                                                   
------------------------------------------------------------------------------
------------------------------------------------------------------------------
-------7----5----------------7----5----------------7----5----------------7----
-5--3--7----5--3--0----5--3--7----5--3--0----5--3--7----5--3--0----5--3--7----
-5--3--5----3--3--0----5--3--5----3--3--0----5--3--5----3--3--0----5--3--5----
-5--3----------3--0----5--3----------3--0----5--3----------3--0----5--3-------
                                                                              

------------------------------------------------------------------------------
------------------------------------------------------------------------------
-5p2-------7------------------------------------------------------------------
-----3h5-3-7------------------------------------------------------------------
-----------5------------------------------------------------------------------
------------------------------------------------------------------------------  
Finish with this
------------------------------------------------------------------------------
------------------------------------------------------------------------------
-7-7---7-7---10-9-5-----------------------------------------------------------
-7-7---7-7---10-9-5-----------------------------------------------------------
-5-5---5-5---8--7-3-----------------------------------------------------------
------------------------------------------------------------------------------
            
Submit corrections


        Deny lessons Hard to play? Try these video lessons and learn fast Deny lessons
        
↑ Back to top | Tablatures and chords for acoustic guitar and electric guitar, ukulele, drums are parodies/interpretations of the original songs. You may use it for private study, scholarship, research or language learning purposes only