Home » D » Deez Nuts »

Deez Nuts - Bf And Ff Tabs

Artists:  A B C D E F G H I J K L M N O P Q R S T U V W X Y Z # 

Bf And Ff Tabs

(ver. 1) Click to play this song!
Deez Nuts
BF & FF
Deez Nuts
Rep Your Hood Album
2007

Tab Legend
.  Palm Mute
/  Slide

Intro:
(Play Once)

D|------------------------------------------------------------|
A|------------------------------------------------------------|
F|------------------------------------------------------------|
C|-------4----------------------------------------------------|
G|--3-33-2-3-33-3-33-1-11-1-4-44-4-44-------------------------|
C|--3-33---3-33-3-33-1-11-1-4-44-4-44-------------------------|
      ..     ..   ..   ..     ..   ..
D|------------------------------------------------------------|
A|------------------------------------------------------------|
F|------------------------------------------------------------|
C|-------4----------------------------------------------------|
G|--3-33-2-3-33-3-33-1-1-1-1-4-4-4-4-44-----------------------|
C|--3-33---3-33-3-33-1-1-1-1-4-4-4-4-44-----------------------|
      ..     ..   ..   .   .

Verse 1:

D|------------------------------------------------------------ ---- \
A|------------------------------------------------------------  --- \
F|------------------------------------------------------------   -- \
C|-------4----------------------------------------------------   -- \x3
G|--3-33-2-3-33-3-33-1-11-1-4-44-4-44------------------------------ \   /
C|--3-33---3-33-3-33-1-11-1-4-44-4-44------------------------------ \  /
      ..     ..   ..   ..     ..   ..

D|------------------------------------------------------------  ---- \
A|------------------------------------------------------------   --- \
F|------------------------------------------------------------    -- \
C|-------4----------------------------------------------------    -- \x1
G|--3-33-2-3-33-3-33-1-1-1-1-4-4-4-4-44----------------------------- \    /
C|--3-33---3-33-3-33-1-1-1-1-4-4-4-4-44----------------------------- \   /
      ..     ..   ..   .   .

D|------------------------------------------------------------ ---- \
A|------------------------------------------------------------  --- \
F|------------------------------------------------------------   -- \
C|-------4----------------------------------------------------   -- \x3
G|--3-33-2-3-33-3-33-1-11-1-4-44-4-44------------------------------ \   /
C|--3-33---3-33-3-33-1-11-1-4-44-4-44------------------------------ \  /
      ..     ..   ..   ..     ..   ..

D|------------------------------------------------------------  ---- \
A|------------------------------------------------------------   --- \
F|------------------------------------------------------------    -- \
C|-------4----------------------------------------------------    -- \x1
G|--3-33-2-3-33-3-33-1-1-1-1-4-4-4-4-44-1-1-1-1-4-4-4-4-44---------- \    /
C|--3-33---3-33-3-33-1-1-1-1-4-4-4-4-44-1-1-1-1-4-4-4-4-44---------- \   /
      ..     ..   ..   .   .

End Verse 1 with:
D|------------------------------------------------------------|
A|------------------------------------------------------------|
F|------------------------------------------------------------|
C|-3----------------------------------------------------------|
G|-3----------------------------------------------------------|
C|-3----------------------------------------------------------|
   ^Sustained

Pre-Chorus 1
D|------------------------------------------------------------|
A|------------------------------------------------------------|
F|------------------------------------------------------------|
C|------------------------------------------------------------|
G|---------333333333333/888877777777777700--------------------|
C|---------333333333333/888877777777777700--------------------|
           ............ ..................

D|------------------------------------------------------------|
A|------------------------------------------------------------|
F|------------------------------------------------------------|
C|------------------------------------------------------------|
G|---------333333333333/8888777777777777~---------------------|
C|---------333333333333/8888777777777777~---------------------|
           ............ ...............

Chorus 1:
D|---------------------------------------------------------------- \
A|------------------------------------------------------------ --- \
F|------------------------------------------------------------  -- \
C|------------------------------------------------------------  -- \x4
G|---------333333333333/888877777777777700------------------------ \  /
C|---------333333333333/888877777777777700------------------------ \ /

End Chorus 1 with:
D|------------------------------------------------------------|
A|------------------------------------------------------------|
F|------------------------------------------------------------|
C|-3----------------------------------------------------------|
G|-3----------------------------------------------------------|
C|-3----------------------------------------------------------|
   ^Sustained

Pre-Verse 2:
D|------------------------------------------------------------|
A|------------------------------------------------------------|
F|------------------------------------------------------------|
C|-------4----------------------------------------------------|
G|--3-33-2-3-33-3-33-1-11-1-4-44-4-44-------------------------|
C|--3-33---3-33-3-33-1-11-1-4-44-4-44-------------------------|
      ..     ..   ..   ..     ..   ..
D|------------------------------------------------------------|
A|------------------------------------------------------------|
F|------------------------------------------------------------|
C|-------4----------------------------------------------------|
G|--3-33-2-3-33-3-33-1-1-1-1-4-4-4-4-44-----------------------|
C|--3-33---3-33-3-33-1-1-1-1-4-4-4-4-44-----------------------|
      ..     ..   ..   .   .

Verse 2:
D|------------------------------------------------------------ ---- \
A|------------------------------------------------------------  --- \
F|------------------------------------------------------------   -- \
C|-------4----------------------------------------------------   -- \x3
G|--3-33-2-3-33-3-33-1-11-1-4-44-4-44------------------------------ \   /
C|--3-33---3-33-3-33-1-11-1-4-44-4-44------------------------------ \  /
      ..     ..   ..   ..     ..   ..

D|------------------------------------------------------------  ---- \
A|------------------------------------------------------------   --- \
F|------------------------------------------------------------    -- \
C|-------4----------------------------------------------------    -- \x1
G|--3-33-2-3-33-3-33-1-1-1-1-4-4-4-4-44----------------------------- \    /
C|--3-33---3-33-3-33-1-1-1-1-4-4-4-4-44----------------------------- \   /
      ..     ..   ..   .   .

D|------------------------------------------------------------ ---- \
A|------------------------------------------------------------  --- \
F|------------------------------------------------------------   -- \
C|-------4----------------------------------------------------   -- \x3
G|--3-33-2-3-33-3-33-1-11-1-4-44-4-44------------------------------ \   /
C|--3-33---3-33-3-33-1-11-1-4-44-4-44------------------------------ \  /
      ..     ..   ..   ..     ..   ..

D|------------------------------------------------------------  ---- \
A|------------------------------------------------------------   --- \
F|------------------------------------------------------------    -- \
C|-------4----------------------------------------------------    -- \x1
G|--3-33-2-3-33-3-33-1-1-1-1-4-4-4-4-44-1-1-1-1-4-4-4-4-44---------- \    /
C|--3-33---3-33-3-33-1-1-1-1-4-4-4-4-44-1-1-1-1-4-4-4-4-44---------- \   /
      ..     ..   ..   .   .              .   .

End Verse 2 with:
D|------------------------------------------------------------|
A|------------------------------------------------------------|
F|------------------------------------------------------------|
C|-3----------------------------------------------------------|
G|-3----------------------------------------------------------|
C|-3----------------------------------------------------------|
   ^Sustained

Pre-Chorus 2:
D|------------------------------------------------------------|
A|------------------------------------------------------------|
F|------------------------------------------------------------|
C|------------------------------------------------------------|
G|---------333333333333/888877777777777700--------------------|
C|---------333333333333/888877777777777700--------------------|
           ............ ..................

D|------------------------------------------------------------|
A|------------------------------------------------------------|
F|------------------------------------------------------------|
C|------------------------------------------------------------|
G|---------333333333333/8888777777777777~---------------------|
C|---------333333333333/8888777777777777~---------------------|
           ............ ...............

Chorus 2:
D|---------------------------------------------------------------- \
A|------------------------------------------------------------ --- \
F|------------------------------------------------------------  -- \
C|------------------------------------------------------------  -- \x7
G|---------333333333333/888877777777777700------------------------ \  /
C|---------333333333333/888877777777777700------------------------ \ /


D|---------------------------------------------------------------- \
A|------------------------------------------------------------ --- \
F|------------------------------------------------------------  -- \
C|------------------------------------------------------------  -- \x1
G|---------333333333333/8888777777777777~------------------------- \  /
C|---------333333333333/8888777777777777~------------------------- \ /

Outro:
D|------------------------------------------------------------|
A|------------------------------------------------------------|
F|------------------------------------------------------------|
C|-------4----------------------------------------------------|
G|--3-33-2-3-33-3-33-1-1-1-1-4--------------------------------|
C|--3-33---3-33-3-33-1-1-1-1-4--------------------------------|
      ..     ..   ..   .   .

Lyrics:
Life is tough, yeah it's sad but true
Not a day goes by without some bullsh*t or drama
Gotta keep eyes in the back of your head
Somebody's waiting to f**k you round behind every god damn corner
Still you gotta fight for yours everyday of the week
It's a mother f**king struggle to make ends meet
The one thing that keeps me goin everyday.
I'll always have my friends, i'll always have my family

Make money
Stay true
Share the wealth
Keep it real
You gotta do it for them.
Because the'd do it for you

WHEN TIMES GETS TOUGH
I know its not the end, i can always depend
On my friends and family
WHEN sh*t GETS ROUGH
I've got the upperhand.
Because they've got my back
Till the bitter f**king end

Every day it gets hard knowing right from wrong
Gotta keep your eyes on the prize
Do the best you can
Everybody f**ks up, i do it more than most
But i fight to be a better man
But there will never be a price on the from my friends and family

Make money
Stay true
Share the wealth
Keep it real
You gotta do it for them.
Because the'd do it for you

WHEN TIMES GETS TOUGH
I know its not the end, i can always depend
On my friends and family
WHEN sh*t GETS ROUGH
I've got the upperhand.
Because they've got my back
Till the bitter f**king end
            
Submit corrections

↑ Back to top | Tablatures and chords for acoustic guitar and electric guitar, ukulele, drums are parodies/interpretations of the original songs. You may use it for private study, scholarship, research or language learning purposes only