» » »

Deerhunter - Nothing Ever Happened Tabs

Artists:  A B C D E F G H I J K L M N O P Q R S T U V W X Y Z # 

Nothing Ever Happened Tabs

(ver. 3) Click to play this song!
Deerhunter
 Rating:
4/5 (7 votes)

 Nothing Ever Happened lessons Tabs too difficult? Try these video lessons and learn fast
 
                Nothing Ever Happened
Deerhunter
Microcastle

Guitar for bass-
e---------------------------------------------------------------------------|
B---------------------------------------------------------------------------|
G---------------------------------------------------------------------------|
D---------------------------------------------------------------------------|
A---------------------------------------------------------------------------|
E----5555555555555555555555-------------------------------------------------|

Intro- Guitar 1
e----0--0----0----0----0-----0----0----0------------------------------------|
B--5---5---5----5----5-----5----5----5--------------------------------------|
G--7---7---7----7----6-----6----6----6----------X4--------------------------|
D---------------------------------------------------------------------------|
A---------------------------------------------------------------------------|
E---------------------------------------------------------------------------|

Guitar 2-
e---------------------------------------------------------------------------|
B---22222222----------------------------------------------------------------|
G---22222222----------------------------------------------------------------|
D---22222222----------------------------------------------------------------|
A---00000000---X4-----------------------------------------------------------|
E---------------------------------------------------------------------------|

e----------------------------------------------------------------------------|
B--77777777-14-14-14-14-14-14-14-14------------------------------------------|
G--77777777-14-14-14-14-14-14-14-14------------------------------------------|
D--77777777-14-14-14-14-14-14-14-14------------------------------------------|
A--55555555-12-12-12-12-12-12-12-12-----X2-----------------------------------|
E----------------------------------------------------------------------------|

Verse1 and 2 guitar for bass-
e---------------------------------------------------------------------------|
B---------------------------------------------------------------------------|
G---------------------------------------------------------------------------|
D---------------------------------------------------------------------------|
A--12-10-10-10-10-10-10-9----7777-------------------------------------------|
E-------------------------77------------------------------------------------|

Guitar 1-
e---------------------------------------------------------------------------|
B---5553---------30---------------------------------------------------------|
G--------4-42----------0-----4-4---77---------------------------------------|
D------------4/5-----45-5----4-4---77-----X2--------------------------------|
A----------------------------2-2---55---------------------------------------|
E---------------------------------------------------------------------------|

Chorus-
e--3333--77---10-10---------------------------------------------------------|
B--3333--77---10-10---------------------------------------------------------|
G--4444--88---11-11---------------------------------------------------------|
D--5555--99---12-12---------------------------------------------------------|
A--5555--99---12-12----X3---------------------------------------------------|
E--3333--77---10-10---------------------------------------------------------|

e-----------------------------------------------------------------------|
B-----------------------------------------------------------------------|
G--9999--77-12-12-------------------------------------------------------|
D--9999--77-12-12-------------------------------------------------------|
A--7777--55-10-10-------------------------------------------------------|
E-----------------------------------------------------------------------|

Bridge- Both guitars
   G     F#    B
e--3333--2222--77777777-------------------------------------------------|
B--3333--2222--77777777-------------------------------------------------|
G--4444--3333--88888888-------------------------------------------------|
D--5555--4444--99999999-X2----------------------------------------------|
A--5555--4444--99999999-------------------------------------------------|
E--3333--2222--77777777-------------------------------------------------|
   C            G     D
e--8--8--8--8---3333--10-10-10-10-10-10-10-10---------------------------|
B--8--8--8--8---3333--10-10-10-10-10-10-10-10---------------------------|
G--9--9--9--9---4444--11-11-11-11-11-11-11-11---------------------------|
D--10-10-10-10--5555--12-12-12-12-12-12-12-12---------------------------|
A--10-10-10-10--5555--12-12-12-12-12-12-12-12----X4---------------------|
E--8--8--8--8---3333--10-10-10-10-10-10-10-10---------------------------|

Guitar 2
e-----------------------------------------------------------------------|
B-----------------------------------------------------------------------|
G-22222-2224-00----X32--------------------------------------------------|
D-----------------------------------------------------------------------|
A-----------------------------------------------------------------------|
E-----------------------------------------------------------------------|

e-----------------------------------------------------------------------|
B-----------------------------------------------------------------------|
G---22222-222-22-00----X4-----------------------------------------------|
D-----------------------------------------------------------------------|
A-----------------------------------------------------------------------|
E-----------------------------------------------------------------------|

e-----------------------------------------------------------------------|
B-----------------------------------------------------------------------|
G----------2/4-00-----2/4/7/6/9/7/11-9-7-6-4-2-2/4-00-------------------|
D-------245-------X4----------------------------------------------------|
A----245----------------------------------------------------------------|
E---5-------------------------------------------------------------------|

e---3-------------------------------------------------------------------|
B---5-------------------------------------------------------------------|
G---2-X16 let it ring out with distortion-------------------------------|
D-----------------------------------------------------------------------|
A-----------------------------------------------------------------------|
E-----------------------------------------------------------------------|

Guitar 1
e-----------------------------------------------------------------------|
B--h14--------------------h14-------------------------------------------|
G------------h14-X2-----------------h14---------------------------------|
D-----h11-h14----------h14---h11-h14------------------------------------|
A-------------------h12----------------Repeat until end-----------------|
E-----------------------------------------------------------------------|

Guitar 2
e-----------------------------------------------------------------------|
B-----------------------------------------------------------------------|
G--11x8-9x8---------11x8-9x8--------------------------------------------|
D----------11x8-7x8----------11x16--------------------------------------|
A-----------------------------------------------------------------------|
E-----------------------------------------------------------------------|

e-------------------14x4------12x4--------------------------------------|
B--------------------------------------14x4-----------------------------|
G--11x8-9x8-------------11x4------9x4-----------------------------------|
D----------11x8-X2-------------------------11x12-----X4-----------------|
A-----------------------------------------------------------------------|
E-----------------------------------------------------------------------|
            
Submit corrections


        Nothing Ever Happened lessons Hard to play? Try these video lessons and learn fast Nothing Ever Happened lessons
        
↑ Back to top | Tablatures and chords for acoustic guitar and electric guitar, ukulele, drums are parodies/interpretations of the original songs. You may use it for private study, scholarship, research or language learning purposes only