» » »

Deerhunter - Nothing Ever Happened Bass

Artists:  A B C D E F G H I J K L M N O P Q R S T U V W X Y Z # 

Nothing Ever Happened Bass

(ver. 1) Click to play this song!
Deerhunter
 Rating:
4.3/5 (6 votes)

 Nothing Ever Happened lessons Tabs too difficult? Try these video lessons and learn fast
 
                ------------------------------------------------------------------------
------------------------------------------------------------------------


First tab, noticed no one put up a bass tab for this, so i thought i'd fill in. Please 
me if you have any problems, I don't mind feedback

Tuning: Standard

Intro
G|-----------------------------------------------------------------------|
D|-----------------------------------------------------------------------|
A|-12-12-12-12-12---12-12-12-0-12---12-121212----------------------------|
E|-----------------------------------------------------------------(x12--|

*Intro(Variation for 4th count)
G|----------------------------------------------------------------------|
D|----------------------------------------------------------------------|
A|-0-12-12-0-12---12-0-12-12-121212-------------------------------------|
E|----------------------------------------------------------------------|

Beggining Main riff(x2)
G|-----------------------------------------------------------------------|
D|------------------------------------0----------------------------------|
A|-10-10-10-10-10-10--10-9------7-7-9------------------------------------|
E|-------------------------7-7-------------------------------------------|(x7)
(Chorus)
G|-----------------------------------------------------------------------|
D|-----------------------------------------------------------------------|
A|-9-9-9-9-9-9-9-9-------------------------------------------------------|
E|-----------------7-7-7-7-7-7-7-7---------------------------------------|(x3)

G|----------------------------------------------------------------------|
D|----------------------------------------------------------------------|
A|-7-7-7-7-7-7-7-7-5-5-5-5-9-9-9-9--------------------------------------|
E|----------------------------------------------------------------------|

After chorus (when the power chords kick in)

G|-----------------------------------------------------------------------|
D|-----------------------------------------------------------------------|
A|-10-10-10-10-10-10-10-10-9-9-9-9-9-9-9-9/14(x16)-----------------------|
E|-----------------------------------------------------------------------|(x2)
*(This part is rather low, not sure if its correct)
G|-----------------------------------------------------------------------|
D|---------------12(x16)-------------------------------------------------|
A|-15(x8)-10(x8)---------------------------------------------------------|
E|-----------------------------------------------------------------------|(x4)

Guitar Soloing

G|----------------------------------------------------------------------|
D|----------------------------------------------------------------------|
A|-12-12-12-12-12---12-12-12---12---12-12-12----------------------------|
E|----------------------------------------------------------------------|

G|----------------------------------------------------------------------|
D|----------------------------------------------------------------------|
A|-7-7-7-7-7---7-7-7---7---7-7-7----------------------------------------|
E|----------------------------------------------------------------------|

The bassline stays like that until 4:33, Then its something like

G|----------------------------------------------------------------------|
D|----------------------------------------------------------------------|
A|----------------------------------------------------------------------|
E|-10(x16)-5(x16)-------------------------------------------------------|

OR

G|----------------------------------------------------------------------|
D|----------------------------------------------------------------------|
A|-5(x16)-0(x16)--------------------------------------------------------|
E|----------------------------------------------------------------------|

At 4:58. it changes slightly

G|----------------------------------------------------------------------|
D|----------------------------------------------------------------------|
A|-----------------0(x16)-----------------------------------------------|
E|-10(x8)-9(x8)/12**----------------------------------------------------|

At 5:23 It reverts back to normal


* I play these riffs this way, but I'm not to sure if they're 100% correct.Take them 
a grain of salt

** Its up to you if you hear this additional note. I kinda do

| /  slide up
| \  slide down
| h  hammer-on
| p  pull-off
| ~  vibrato
| +  harmonic
| x  Mute note
=======================================================================
            
Submit corrections


        Nothing Ever Happened lessons Hard to play? Try these video lessons and learn fast Nothing Ever Happened lessons
        
↑ Back to top | Tablatures and chords for acoustic guitar and electric guitar, ukulele, drums are parodies/interpretations of the original songs. You may use it for private study, scholarship, research or language learning purposes only