» » »

Deerhunter - Hazel St Tabs

Artists:  A B C D E F G H I J K L M N O P Q R S T U V W X Y Z # 

Hazel St Tabs

(ver. 1) Click to play this song!
Deerhunter
 Rating:
4/5 (4 votes)

 Hazel St lessons Tabs too difficult? Try these video lessons and learn fast
 
                Hazel St.
Deerhunter
Cryptograms

Drop d tuning

intro (bass)
e--------------------------------------------------------------------|
b--------------------------------------------------------------------|
g--------------------------------------------------------------------| x2
d--------------------------------------------------------------------|
a------------------------------------------------555-----------------|
D-555555555555544577777777777777445/7555555555555---0000000000000000-|


e--------------------------------------------------------------------|
b--------------------------------------------------------------------|
g--------------------------------------------------------------------|
d-77777777777777777777777777777777777777777--------------------------|
a-55555555555555555555555555555555555555555--------------------------|
D--------------------------------------------------------------------|

Verse

e-----10----10-12-10-9-----10----10-12-10-9----12----12----14---14---|
b----12----12-------------12----12------------12----12----12---12----|
g---12----12-------------12----12------------12----12----12---12-----|
d--------------------------------------------------------------------|
a--------------------------------------------------------------------|
D--------------------------------------------------------------------|

e---------12-12-12-12----|
b---10---10--10-10-10----|
g--11---11---11-11-11----|
d-12---12----12-12-12----|
a------------------------|
D------------------------|

Break
(bass intro with a bit of verse)

Slowly back in with verse

e-----10----10------10----10-----12----12----14---14---|
b----12----12------12----12-----12----12----12---12----|
g---12----12------12----12-----12----12----12---12-----|
d------------------------------------------------------|
a------------------------------------------------------|
D------------------------------------------------------|

e---------12-12-12-12----|
b---10---10--10-10-10----|
g--11---11---11-11-11----|
d-12---12----12-12-12----|
a------------------------|
D------------------------|

guitar 2

e-9-9-9-9-9-9-9-9-9-9-9-9-9-9-9-9-9-9-9-9-9-9-9-9-9-9-9-9---|
b--8-8-8-8-8-8-8-8-8-8-8-8-8-8-8-8-8-8-8-8-8-8-8-8-8-8-8-8--|
g-----------------------------------------------------------|
d-----------------------------------------------------------|
a-----------------------------------------------------------|
D-----------------------------------------------------------|

Outro
e-12--
b-10--
g-11-- until the end
a-12--
D-----
            
Submit corrections


        Hazel St lessons Hard to play? Try these video lessons and learn fast Hazel St lessons
        
↑ Back to top | Tablatures and chords for acoustic guitar and electric guitar, ukulele, drums are parodies/interpretations of the original songs. You may use it for private study, scholarship, research or language learning purposes only