» » »

Deerhunter - Hazel St Bass

Artists:  A B C D E F G H I J K L M N O P Q R S T U V W X Y Z # 

Hazel St Bass

(ver. 1) Click to play this song!
Deerhunter
 Rating:
4/5 (4 votes)

 Hazel St lessons Tabs too difficult? Try these video lessons and learn fast
 
                Deerhunter
Hazel St. - Bass Tab
Cryptograms

Intro (slower tempo than rest of the song)

(0:00)
G|-------------------------|----------------------|
D|-------------------------|----------------------|
A|-10-10-10-10-10-10-10-10-|-10-10-10-10-10-9-9-9-|
E|-------------------------|----------------------|

G|-------------------------|-----------------------|
D|-------------------------|-----------------------|
A|-12-12-12-12-12-12-12-12-|-12-12-12-12-12-9-9-12-|
E|-------------------------|-----------------------|

G|-------------------------|-------------------------|
D|-------------------------|----------------12----12-|
A|-10-10-10-10-10-10-10-10-|-10-10-10-10-10----10----|
E|-------------------------|-------------------------|

G|-------------------------|-------------------------|
D|-------------------------|-------------------------|
A|-------------------------|-------------------------|
E|-10-10-10-10-10-10-10-10-|-10-10-10-10-10-10-10-10-|

(0:18)
G|-------------------------|----------------------|
D|-------------------------|----------------------|
A|-10-10-10-10-10-10-10-10-|-10-10-10-10-10-9-9-9-|
E|-------------------------|----------------------|

G|-------------------------|-----------------------|
D|-------------------------|-----------------------|
A|-12-12-12-12-12-12-12-12-|-12-12-12-12-12-9-9-12-|
E|-------------------------|-----------------------|

G|-------------------------|-------------------------|
D|-------------------------|----12----12----12----12-|
A|-10-10-10-10-10-10-10-10-|-10----10----10----10----|
E|-------------------------|-------------------------|

(0:31 - guitar comes in)
G|-------------------------|-------------------------|
D|-------------------------|-------------------------|
A|-------------------------|-------------------------|
E|-10-10-10-10-10-10-10-10-|-10-10-10-10-10-10-10-10-|

G|-------------------------|-------------------------|
D|-------------------------|-------------------------|
A|-------------------------|-------------------------|
E|-10-10-10-10-10-10-10-10-|-10-10-10-10-10-10-10-10-|

G|-------------------------|-------------------------|
D|-------------------------|-------------------------|
A|-------------------------|-------------------------|
E|-10-10-10-10-10-10-10-10-|-10-10-10-10-10-10-10-10-|

G|-------------------------|-------------------------|
D|-------------------------|-------------------------|
A|-------------------------|-------------------------|
E|-10-10-10-10-10-10-10-10-|-10-10-10-10-10-10-10-10-|

Main Riff (0:49-3:28)
Repeat this through the rest of the song, with the exception of the outro.
G|-------------------------|----------------------|
D|-------------------------|----------------------|
A|-10-10-10-10-10-10-10-10-|-10-10-10-10-10-9-9-9-|
E|-------------------------|----------------------|

G|-------------------------|-----------------------|
D|-------------------------|-----------------------|
A|-12-12-12-12-12-12-12-12-|-12-12-12-12-12-9-9-12-|
E|-------------------------|-----------------------|

G|-------------------------|-------------------------|
D|-------------------------|-------------------------|
A|-10-10-10-10-10-10-10-10-|-10-10-10-10-10-10-10-10-|
E|-------------------------|-------------------------|

G|-------------------------|-------------------------|
D|-------------------------|-------------------------|
A|-------------------------|-------------------------|
E|-10-10-10-10-10-10-10-10-|-10-10-10-10-10-10-10-10-|

Outro (3:28-end)
G|-------------------------|-------------------------|
D|-------------------------|-------------------------|
A|-------------------------|-------------------------|
E|-10-10-10-10-10-10-10-10-|-10-10-10-10-10-10-10-10-|

G|-------------------------|-------------------------|
D|-------------------------|-------------------------|
A|-------------------------|-------------------------|
E|-10-10-10-10-10-10-10-10-|-10-10-10-10-10-10-10-10-|

G|-------------------------|-------------------------|-------------------------|
D|-------------------------|-------------------------|-------------------------|
A|-------------------------|-------------------------|-------------------------|
E|-10-10-10-10-10-10-10-10-|-10-10-10-10-10--10--10--|-10----------------------|

And that's it!
            
Submit corrections


        Hazel St lessons Hard to play? Try these video lessons and learn fast Hazel St lessons
        
↑ Back to top | Tablatures and chords for acoustic guitar and electric guitar, ukulele, drums are parodies/interpretations of the original songs. You may use it for private study, scholarship, research or language learning purposes only