» » »

Decapitated - Silence Tabs

Artists:  A B C D E F G H I J K L M N O P Q R S T U V W X Y Z # 

Silence Tabs

(ver. 2) Click to play this song!
Decapitated
 Rating:
4.1/5 (31 vote)

 Silence lessons Tabs too difficult? Try these video lessons and learn fast
 
                Tuning:DADGBe

e|---------------------------------------------------------------------------|
B|---------------------------------------------------------------------------|
G|-----2--2-----2--0-----0--2------2/5-----5\4------4/5------5\4------4~-----|
D|-----------------------------------------------------------------3---------|
A|---------------------------------------------------------------------------|
D|--0--------0--------0--------0--------0--------0--------0--------0---------|
                                                                                   x3

e|---------------------------------------------------------------------------|
B|---------------------------------------------------------------------------|
G|-----2--2-----2--0-----0--2------2/5-----5/7------7\4------4\2------2/4----|
D|-------------------------------------------------------------------------3-|
A|---------------------------------------------------------------------------|
D|--0--------0--------0--------0--------0--------0--------0--------0-------0-|


Break
e|---------------------------------------------------------------------------|
B|----------3---------------3---------------3---------------3----------------|
G|------2-------2-------2-------2-------2-------2-------2-------2------------|     x2
D|----0---0---0---0---0---0---0---0---0---0---0---0---0---0---0---0----------|
A|---------------------------------------------------------------------------|
D|--4---------------3---------------4---------------3---------------3\7------|
                                                       (Slide to 7 on the final one)


e|---------------------------------------------------------------------------|
B|---------------------------------------------------------------------------|
G|-----2--2-----2--0-----0--2------2/5-----5\4------4/5------5\4------4~-----|
D|-----------------------------------------------------------------3---------|
A|---------------------------------------------------------------------------|
D|--0--------0--------0--------0--------0--------0--------0--------0---------|
                                                                                   x2

e|---------------------------------------------------------------------------|
B|---------------------------------------------------------------------------|
G|-----2--2-----2--0-----0--2------2/5-----5/7------7\4------4\2------2/4----|
D|-------------------------------------------------------------------------3-|
A|---------------------------------------------------------------------------|
D|--0--------0--------0--------0--------0--------0--------0--------0-------0-|



Break
e|---------------------------------------------------------------------------|
B|----------3---------------3---------------3---------------3----------------|
G|------2-------2-------2-------2-------2-------2-------2-------2------------|     x2
D|----0---0---0---0---0---0---0---0---0---0---0---0---0---0---0---0----------|
A|---------------------------------------------------------------------------|
D|--4---------------3---------------4---------------3---------------3\7------|
                                                       (Slide to 7 on the final one)


e|---------------------------------------------------------------------------|
B|---------------------------------------------------------------------------|
G|-----2--2-----2--0-----0--2------2/5-----5\4------4/5------5\4------4~-----|
D|-----------------------------------------------------------------3---------|
A|---------------------------------------------------------------------------|
D|--0--------0--------0--------0--------0--------0--------0--------0---------|
                                                                                   x2

e|---------------------------------------------------------------------------|
B|---------------------------------------------------------------------------|
G|-----2--2-----2--0-----0--2------2/5-----5/7------7\4------4\2------2/4----|
D|-------------------------------------------------------------------------3-|
A|---------------------------------------------------------------------------|
D|--0--------0--------0--------0--------0--------0--------0--------0-------0-|



Outro
e|-------6----------------5----------------3----------------1---------------1|
B|---------------------------------------------------------------------------|
G|---------------------------------------------------------------------------|     x3
D|-------0----------------0----------------0----------------0----------------|
A|--------------------------------------------------------------------------0|
D|--0----------------0----------------0----------------0---------------0-----|

                                                   
e|-------6----------------5----------------3----------------1----------------|
B|---------------------------------------------------------------------------|
G|---------------------------------------------------------------------------|     
D|-------0----------------0----------------0----------------0----------------|
A|---------------------------------------------------------------------------|
D|--0----------------0----------------0----------------0---------------------|


e|-------6----------------5----------------3----------------1---------------1|
B|---------------------------------------------------------------------------|
G|---------------------------------------------------------------------------|     
D|-------0----------------0----------------0----------------0----------------|
A|--------------------------------------------------------------------------0|
D|--0----------------0----------------0----------------0---------------0-----|


e|--/13---------------13--------------------13-------------------------------|
B|-----------12----------------------------------------------------10-----12-|
G|-------------------------------------------------12------------------------|     
D|---------------------------------------------------------------------------|
A|---------------------------------------------------------------------------|
D|---------------------------------------------------------------------------|            
Submit corrections


        Silence lessons Hard to play? Try these video lessons and learn fast Silence lessons
        
↑ Back to top | Tablatures and chords for acoustic guitar and electric guitar, ukulele, drums are parodies/interpretations of the original songs. You may use it for private study, scholarship, research or language learning purposes only