Home » D » Death Cab For Cutie »

Death Cab For Cutie - Roman Candles Bass

Artists:  A B C D E F G H I J K L M N O P Q R S T U V W X Y Z # 

Roman Candles Bass

(ver. 1) Click to play this song!
Death Cab For Cutie
Intro
G|------------------------------------------------------------------------------------------------------|
D|--------------------------4-4-4-4-4-4-----------------------------------------4-4-4-4------------7-7--|
A|-------------/5-5-5-5-5-5-------------5-5-5-5-5-/12-12-12-12\-0-0-0-0-5-5-5-5---------5-5-5-5---------|
E|--/5-5-5-5-5------------------------------------------------------------------------------------------|
 
 
:26 seconds
G|-------------------------------------------------------------------------|
D|-------------------------------------------------------------------------|
A|-5-5-5-5-4-0-0-0-0----------5-5-5-5-4-0-0-0-0---------5-5-5-5-4-0-0-0-0--|
E|-------------------2-2-2-2--------------------2-2-2-2--------------------|
 
:40 - Synth
 
:48
G|----------------------|
D|-------7-----4---7-7--|
A|--12-5---0-5---5------|
E|----------------------|
 
1:02
G|----------------------------------------------------------------------|
D|----------------------------------------------------------------------|
A|--5-5-4-0-0-0-0----------5-5-5-5-4-0-0-0-0---------5-5-5-5-4-0-0-0-0--|
E|----------------2-2-2-2--------------------2-2-2-2--------------------|
 
1:17
G|-------------------|
D|-------------------|
A|--9-9-9-9-7-7-7-7--|  X3
E|-------------------|
  PM
 
1:29 - Outro
G|---------------------------------------------|
D|------------------------4-----4--------------|
A|--5------5--0---5-0-5-0---5-0---5-5-5-5-5-5--|
E|----5-2-------2------------------------------|
                                  d d d d d d
            
Submit corrections

↑ Back to top | Tablatures and chords for acoustic guitar and electric guitar, ukulele, drums are parodies/interpretations of the original songs. You may use it for private study, scholarship, research or language learning purposes only