Home » D » Death Cab For Cutie »

Death Cab For Cutie - Hold No Guns Tabs

Artists:  A B C D E F G H I J K L M N O P Q R S T U V W X Y Z # 

Hold No Guns Tabs

(ver. 1) Click to play this song!
Death Cab For Cutie
[Verse]
e|--------------------------------------------|
B|--------------------------------------------|
G|--------------------------------------------|
D|------------4/6----6---------------6--------|
A|------2/4----------------7----7--------7----|
E|--0--------------0----0----0----0----0----0-|

e|----------------------------|
B|------------5---------------|
G|-------------------6--------|
D|-----6-------------------6--|
A|-4------4------4------4-----|
E|----------------------------|

e|---------------------------------------------------------------|
B|---------------------------------------------------------------|
G|-------9------------2--1---------------------------------------|
D|----9-----9------2---------------------------------------------|
A|-7------------0------------------------------------------------|
E|---------------------------------------------------------------|


e|--------------------------------------------|
B|--------------------------------------------|
G|--------------------------------------------|
D|------------4/6----6---------------6--------|
A|------2/4----------------7----7--------7----|
E|--0--------------0----0----0----0----0----0-|

e|----------------------------|
B|------------5---------------|
G|-------------------6--------|
D|-----6-------------------6--|
A|-4------4------4------4-----|
E|----------------------------|

e|---------------------------------------------------------------|
B|---------------------------------------------------------------|
G|--------4-------------2--1-------------------------------------|
D|-----4-----4-------2-------------------------------------------|
A|--2------------0-----------------------------------------------|
E|---------------------------------------------------------------|

[Chorus]
e|---------------------------------------------------------------|
B|---------------------------------------------------------------|
G|----------1--------------2---------------4---------------------|
D|-------2--------------4---------------6-------------4----------|
A|----2--------------4---------------6-------------4-----4-------|
E|-0--------------2---------------4-------------2----------------|

e|---------------------------------------------------------------|
B|---------------------------------------------------------------|
G|--------2------2------2--------------2-------2-------2---1-----|
D|-----2-----2-------2-------------2-------2-------2-------------|
A|--0-----------------------0--0---------------------------------|
E|---------------------------------------------------------------|            
Submit corrections

↑ Back to top | Tablatures and chords for acoustic guitar and electric guitar, ukulele, drums are parodies/interpretations of the original songs. You may use it for private study, scholarship, research or language learning purposes only