Home » D » Dead Milkmen »

Dead Milkmen - Punk Rock Girl Tabs

Artists:  A B C D E F G H I J K L M N O P Q R S T U V W X Y Z # 

Punk Rock Girl Tabs

(ver. 2) Click to play this song!
Dead Milkmen
"punk rock girl" - the dead milkmen


  VERSES 1 - 4
|-------------------------------------------------------------|
|-------------------------------------------------------------|
|------------------------5------------------------------------|
|---5---------5----------5-------------5----------------------|
|---5---------5----------3-------------5----------------------|
|---3---------3------------------------3----------------------|
  One Saturday I took a walk to Zipperhead
  I tapped her on the shoulder and said "Do you have a beau?"
  She took me to her parents' for a Sunday meal
  We got into a car and away we started rollin'

|-------------------------------------------------------------|
|-------------------------------------------------------------|
|------------------------------5----------------7-------------|
|---5-----------5--------------5----------------7-------------|
|---5-----------5--------------3----------------5-------------|
|---3-----------3---------------------------------------------|
  I met a girl there and she almost knocked me dead
  She looked at me and smiled and said she did not know
  Her father took one look at me and he began to squeal
  I asked how much she paid for it, she said "Nothin' man, 
                                                 it's stolen"

|-------------------------------------------------------------|
|-------------------------------------------------------------|
|------------9------------5--------------------------7--------|
|------------9------------5-------------5------------7--------|
|------------7------------3-------------5------------5--------|
|---------------------------------------3---------------------|
  Punk rock girl please look at me      What do you see?
  Punk rock girl give me a chance   let's go slam dance
  Punk rock girl it makes no sense your fathers a vicepresident
  Punk rock girl you look so wild   let's have a child

|-------------------------------------------------------------|
|-------------------------------------------------------------|
|-----------------7---------5----------9------7---------------|
|---------5-------7---------5----------9------7------------5--|
|---------5-------5---------3----------7------5------------5--|
|---------3------------------------------------------------3--|
  Let's travel 'round the world, just you and me punk rock girl
  We'll dress like Minnie Pearl just you and me punk rock girl
  Rich as the Duke of Earl yeah, you're for me punk rock girl
  We'll name her Minnie Pearl just you and me
  (We'll travel round the world just you and me punk rock girl)


INTERLUDES 1 & 2
|-------------------------------------------------------------|
|-------------------------------------------------------------|
|--7--------------9-------------7-----------9---------------7-|
|--7--------------9-------------7-----------9---------------7-|
|--5--------------7-------------5-----------7---------------5-|
|-------------------------------------------------------------|
  We went to the Philly Pizza company and ordered some hot tea
  We went to a shopping mall and laughed at all the shoppers

|-------------------------------------------------------------|
|-------------------------------------------------------------|
|-------9----------------7----------9---------7---------------|
|-------9----------------7----------9---------7---------------|
|-------7----------------5----------7---------5---------------|
|-------------------------------------------------------------|
  The waitress said well no, we only have it iced
  The security guards trailed us to a record shop

|-------------------------------------------------------------|
|-------------------------------------------------------------|
|---------9----------------7----------9---------7-------------|
|---------9----------------7----------9---------7-------------|
|---------7----------------5----------7---------5-------------|
|-------------------------------------------------------------|
  So we jumped up on the table and shouted anarchy
  We asked for Mojo Nixon, they said "He don't work here"
 
|-------------------------------------------------------------|
|-------------------------------------------------------------|
|-------9---------------7--------------9-----------7----------|
|-------9---------------7--------------9-----------7----------|
|-------7---------------5--------------7-----------5----------|
|-------------------------------------------------------------|
  And someone played a Beach Boys song on the jukebox
  We said if you don't know Mojo Nixon 
                        then your store could use some fixin'

|-------------------------------------------------------------|
|-------------------------------------------------------------|
|---------------9----------7-------9-----------------7--------|
|---------------9----------7-------9-----------------7--------|
|---------------7----------5-------7-----------------5--------|
|-------------------------------------------------------------|
  And it was "California Dreamin'" so we started screamin


|-------------------------------------------------------------|
|-------------------------------------------------------------|
|-----9--------------7-------7-5-4-2--------------------------|
|-----9--------------7-------7-5-4-2--------------------------|
|-----7--------------5-------5-3-2-0--------------------------|
|-------------------------------------------------------------|
  On such a winter's day
            
Submit corrections

↑ Back to top | Tablatures and chords for acoustic guitar and electric guitar, ukulele, drums are parodies/interpretations of the original songs. You may use it for private study, scholarship, research or language learning purposes only