Home » D » Dead Milkmen »

Dead Milkmen - Bitchin' Camaro Bass

Artists:  A B C D E F G H I J K L M N O P Q R S T U V W X Y Z # 

Bitchin' Camaro Bass

(ver. 1) Click to play this song!
Dead Milkmen
b**chin' Camaro by The Dead Milkmen
Standaed Tuning - EADG

It Starts off with this old Blues Stadand-

Slow Dialogue Part (38 measures)
G------------------------------|   
D---------------2---3----------|    
A-------2---5-----------5---2--|x5   
E-3-3--------------------------|      
                                      
G------------------------------|
D--------------2---3-2---------|
A-------2---5-----------5-3-2--|x1
E-3-3--------------------------|
  
G------------------------------|   
D---------------2---3----------|    
A-------2---5-----------5---2--|x11
E-3-3--------------------------|  

G------------------------------|
D--------------2---3-2---------|
A-------2---5-----------5-3-2--|x1
E-3-3--------------------------|

G------------------------------|   |----|
D---------------2---3----------|   |----|
A-------2---5-----------5---2--|x20|----|
E-3-3--------------------------|   |-3--|

Fast Part -

Chorus (b**chIN' CAMARO)
G---------------------------------|
D---------------------------------|
A-------------------------5--rest-|x2
E-7-7-7-7-0-0-0-0-5-5-5-5---------|

Verse 1
G---------------------------------|
D---------------------------------|
A---------1-1-1-1---------3--rest-|x4
E-1-1-1-1---------3-3-3-3---------|

Chorus 
G---------------------------------|
D---------------------------------|
A-------------------------5--rest-|x2
E-7-7-7-7-0-0-0-0-5-5-5-5---------|

Verse 2
G---------------------------------|
D---------------------------------|
A---------1-1-1-1---------3--rest-|x4
E-1-1-1-1---------3-3-3-3---------|

Chorus 
G---------------------------------|
D---------------------------------|
A-------------------------5--rest-|x2
E-7-7-7-7-0-0-0-0-5-5-5-5---------|
            
Submit corrections

↑ Back to top | Tablatures and chords for acoustic guitar and electric guitar, ukulele, drums are parodies/interpretations of the original songs. You may use it for private study, scholarship, research or language learning purposes only