Home » D » Dead By Sunrise »

Dead By Sunrise - Give Me Your Name Tabs

Artists:  A B C D E F G H I J K L M N O P Q R S T U V W X Y Z # 

Give Me Your Name Tabs

(ver. 1) Click to play this song!
Dead By Sunrise
Tuning:
Guitar I (Rhythm): Dropped D
Guitar II (Heavy Distortion): Dropped D
Guitar III (Acoustic): Standard

Note I: Some parts of guitar II, especially the end of the 
solo, were hard to hear clearly because of the heavy 
distortion.  Also, to get the timing right for guitar II's 
parts, you just need to listen to the song as you play.

Note II: I may add the melody guitar II plays during the chorus
later.  If there is one (which I think there is) it's hard to 
hear and is subtle.

[Intro (0:00-0:28)]
[Guitar I]
E|------------------------------------------------------------|
B|------------------------------------------------------------|
G|------------------------------------------------------------|
D|------------------------------------------------------------|
A|-9/10~----------7~----------2~----------5~------------------|
D|-9/10~----------7~----------2~----------5~------------------|

[Guitar II]
[0:05-0:28]
E|------------------------------------------------------------|
B|-13bp12bp10~----10/12\10~----10\6---------------------------|
G|----------------------------------7/9~----9\7/9~----9\4-----|
D|----------------------------------------------------9\4-----|
A|------------------------------------------------------------|
D|------------------------------------------------------------|

E|-7~----7-7----------------7------7--------------------------|
B|-8~--------8-8-8----8---8---8------8------------------------|
G|-----------------7----7-------7------7----------------------|
D|------------------------------------------------------------|
A|------------------------------------------------------------|
D|------------------------------------------------------------|

[Verse I (0:29-1:28)]
[Guitar I]
[x2]
E|------------------------------------------------------------|
B|------------------------------------------------------------|
G|------------------------------------------------------------|
D|------------------------------------------------------------|
A|-9/10~----------7~----------2~----------5~------------------|
D|-9/10~----------7~----------2~----------5~------------------|

[Guitar II]
[0:29-0:36]
E|------------------------------------------------------------|
B|---------------------8b--8/10b--10~-------------------------|
G|------------------------------------------------------------|
D|-9/10~------------------------------------------------------|
A|------------------------------------------------------------|
D|------------------------------------------------------------|

[0:50-1:00]
E|------------7---7---------7/10--8p7-------------------------|
B|-----8~--8----8----7/8--------------------------------------|
G|-7\4-7~------------7-7--------------------------------------|
D|-7\4--------------------------------9/10~-------------------|
A|------------------------------------------------------------|
D|------------------------------------------------------------|

[1:04-1:19]
E|------------------------------------------------------------|
B|-8b--8/10b--10~----------8--------------12\10/12~-----------|
G|------------------------------------------------------------|
D|----------------------------(5~)----------------------------|
A|------------------------------------------------------------|
D|------------------------------------------------------------|

[1:20-1:28]
E|----------------------------12v~----------------------------|
B|-10\7/8v~------12\10/12~------------------------------------|
G|------------------------------------------------------------|
D|------------------------------------------------------------|
A|------------------------------------------------------------|
D|------------------------------------------------------------|

[Chorus I (1:29-1:57)]
[Guitar I/II]
[x1]
E|------------------------------------------------------------|
B|------------------------------------------------------------|
G|------------------------------------------------------------|
D|------------------------------------------------------------|
A|-10-(x16)----7-(x16)----2-(x16)----5-(x16)------------------|
D|-10----------7----------2----------5------------------------|

[Verse II (1:58-2:26)]
[Guitar I]
[x1]
E|------------------------------------------------------------|
B|------------------------------------------------------------|
G|------------------------------------------------------------|
D|------------------------------------------------------------|
A|-9/10~----------7~----------2~----------5~------------------|
D|-9/10~----------7~----------2~----------5~------------------|

[Guitar II]
[2:04-2:26]
E|---------------10-\-8-\-7~------7/8\7~--------------------7-|
B|-10\8/10~-------------------------------------7/8~----7/8---|
G|------------------------------------------4/7-7-7~----------|
D|------------------------------------------4/7---------------|
A|------------------------------------------------------------|
D|------------------------------------------------------------|

E|-7\5/7------------------------------------------------------|
B|------------------------------------------------------------|
G|-------2/3/4------------------------------------------------|
D|-------2/3/4------------------------------------------------|
A|------------------------------------------------------------|
D|------------------------------------------------------------|

[Chorus II (2:27-2:56)]
[Guitar I/II]
[x1]
E|------------------------------------------------------------|
B|------------------------------------------------------------|
G|------------------------------------------------------------|
D|------------------------------------------------------------|
A|-10-(x16)----7-(x16)----2-(x16)----5-(x16)------------------|
D|-10----------7----------2----------5------------------------|

[Solo/Interlude (2:57-3:26)]
[Guitar I]
E|------------------------------------------------------------|
B|------------------------------------------------------------|
G|------------------------------------------------------------|
D|------------------------------------------------------------|
A|-10~----------7~----------2~----------5~--------------------|
D|-10~----------7~----------2~----------5~--------------------|

[Guitar II]
E|------------------------------------------------------------|
B|------------------------------------------------------------|
G|------9-9-9-9---9-9-9-9\5~---------9-9-9-9--9-9-9\7/9~------|
D|-(10)-------------------------9\7---------------------------|
A|------------------------------------------------------------|
D|------------------------------------------------------------|

E|----------------------------7-7----------7-7\5/7-----7-7\5/7|
B|-----------------------7/8--8-8--8\3-7\8---------7/8--------|
G|-9\7\5\4~--------------7-7-------7\2-------------7-7--------|
D|-------------9/10\9-\5--------------------------------------|
A|------------------------------------------------------------|
D|------------------------------------------------------------|

[Chorus II (3:27-4:25)]
[Guitar I/II]
[x2]
E|------------------------------------------------------------|
B|------------------------------------------------------------|
G|------------------------------------------------------------|
D|------------------------------------------------------------|
A|-10-(x16)----7-(x16)----2-(x16)----5-(x16)------------------|
D|-10----------7----------2----------5------------------------|

[Acoustic Outro (4:26-4:56)]
[Guitar III]
E|----0--0-0---0----0-0---0-----0--0-0--0----0-0-0-------0----|
B|----1--1-1---1----1-1---1-----1--1-1--1----1-1-1-1-1---1----|
G|-0--0--0-0-0-0-0--0-0-0-0-0---0--0-0--0-0--0-0-0-0-2---2----|
D|-2--2--2-2-2-2-2--2-2-2-2-2---2--2-2--2-2--2-2-2-0-2---2----|
A|-3--3--3-3-3-3-3--3-3-3-3-3---3--3-3--3-3--3-3-3---0---0----|
E|------------------------------------------------------------|

E|---0----0----0---0-0---0----0----0----0--------------0----0-|
B|-1-1--1-1--1-1-1-1-1---1--1-1--1-1--1-1-1-0-0---0--0-0--0-0-|
G|-2-2--2-2--2-2-2-2-2---2--2-2--2-2--2-2-2-2-0---0--0-0--0-0-|
D|-2-2--2-2--2-2-2-2-2---2--2-2--2-2--2-2-2-2-2---2--2-2--2-2-|
A|-0-0--0-0--0-0-0-0-0---0--0-0--0-0--0-0-----2---2--2-2--2-2-|
E|------------------------------------------------------------|

E|---0---0-0--------0----0----0-0-0-3~------------------------|
B|-0-0-0-0-0---0--0-0--0-0--0-0-0-0-0~------------------------|
G|-0-0-0-0-0---0--0-0--0-0--0-0-0-0-0~------------------------|
D|-2-2-2-2-2---2--2-2--2-2--2-2-2-2-0~------------------------|
A|-2-2-2-2-2---2--2-2--2-2--2-2-2-2-2~------------------------|
E|----------------------------------3~------------------------|
            
Submit corrections

↑ Back to top | Tablatures and chords for acoustic guitar and electric guitar, ukulele, drums are parodies/interpretations of the original songs. You may use it for private study, scholarship, research or language learning purposes only