Home » D » Dead Boys »

Dead Boys - Sonic Reducer Tabs

Artists:  A B C D E F G H I J K L M N O P Q R S T U V W X Y Z # 

Sonic Reducer Tabs

(ver. 2) Click to play this song!
Dead Boys
ok, so no one has the solo so i figure ill put it up for you.


e---------------------------------------|
b---------------------------------------|
g-/9-9-9-9-9-9-9\6-6-6-6\4--------------|   X2
d--------------------------6-6~---4\2---|
a---------------------------------------|
e---------------------------------------|

e----------------------------------------------------------|
b-----------------------------------/5-5-5-5/7-7-7-7/9-9-9-|
g-------------------4/6-6-6/8-8-8/9------------------------|
d--/6-6-6-6-6-6-6\2----------------------------------------|
a----------------------------------------------------------|
e----------------------------------------------------------|

e--9-9-9-9-9-9-9-9-11-11-11-11-11-11-11-11-12-12-12-12-12-12-12-12-|
b--9-9-9-9-9-9-9-9-11-11-11-11-11-11-11-11-12-12-12-12-12-12-12-12-|
g------------------------------------------------------------------|
d------------------------------------------------------------------|
a------------------------------------------------------------------|
e------------------------------------------------------------------|

e--14-14-14-14-14-14-14-14-----9----9------9-7h9p7------------------------|
b--14-14-14-14-14-14-14-14--12b--12b--12b----------9-7b-7-7-9-7h9p7--7----|
g-------------------------------------------------------------------9--6~-|
d-------------------------------------------------------------------------|
a-------------------------------------------------------------------------|
e-------------------------------------------------------------------------|

there you have it, not sure if its all right though, i didnt have my guitar with me when 
            
Submit corrections

↑ Back to top | Tablatures and chords for acoustic guitar and electric guitar, ukulele, drums are parodies/interpretations of the original songs. You may use it for private study, scholarship, research or language learning purposes only