Home » D » Dead Boys »

Dead Boys - Sonic Reducer Tabs

Artists:  A B C D E F G H I J K L M N O P Q R S T U V W X Y Z # 

Sonic Reducer Tabs

(ver. 1) Click to play this song!
Dead Boys
Dead Boys - Sonic Reducer

Intro
e|---------|
B|---------|
G|-(8)-(6)-  Eb to C#, let ring
D|--8---6--|
A|--6---4--|
E|---------|

Verse
e|-----------------|
B|-----------------|
G|-(6)-------------|  C#, Ab, A, F#
D|--6--------------|(6)-(7)-(4)
A|--4---6---7---4--|
E|------4---5---2--|

Pre-chorus
e|-----------------|
B|-----------------|
G|---------(2)-(4)-|  E, F#, A, B
D|-(2)-(4)--2---4--|
A|--2---4---0---2--|
E|--0---2----------|

Chorus
e|-------------------------|
B|-------------------------|
G|-(4)-(6)-(4)-(6)-(2)-(4)-|  B, C#, B, C#, A, B
D|--4---6---4---6---2---4--|
A|--2---4---2---4---0---2--|
E|-------------------------|

C#               Ab
I don't need anyone

A             F#
Don't need no mom and dad

C#            Ab
Don't need no pretty face

A             F#
Don't need no human raceC#         Ab
I got some news for you

A          F#
Don't even need you too

E         F#
I got my devil machine

A       B
Got my electronic dream

B      C#
Sonic reducer

B          C#     B    A    B
Ain't no loser

B        C#
I'm a sonic reducer

B          C#     B    A    B
Ain't no loser

People out on the streets
They don't know who I am
I watch them from my room
They all just pass me by
But I'm not just anyone
Said I'm not just anyone
I got my devil machine
Got my electronic dream

Sonic reducer
Ain't no loser
I'm a sonic reducer
Ain't no loser

solo

I'll be a pharaoh soon
Rule from some golden tomb
Things will be different then
The sun will rise from here
Then I'll be ten feet tall
And you'll be nothing at all

Sonic reducer
Ain't no loser
I'm a sonic reducer
Ain't no lose


listen to the song to get the timing and everything!
            
Submit corrections

↑ Back to top | Tablatures and chords for acoustic guitar and electric guitar, ukulele, drums are parodies/interpretations of the original songs. You may use it for private study, scholarship, research or language learning purposes only