Home » D » Dawn »

Dawn - Salamat Tabs

Artists:  A B C D E F G H I J K L M N O P Q R S T U V W X Y Z # 

Salamat Tabs

(ver. 2) Click to play this song!
Dawn
 AYOS! Tong Song na to pang Battle toh!

   Para to sa mga kaband ko sa sina marlon steven at gilbert
   Pang Laban Toh Minsan Ng PYRAMID BAND Astig tong Bandang to Abangan nyo
   to malapit na tong Gumawa ng album magagaling tong lahat?


 Intro:

e ---------------------------------|
B ------8/10--8-7-8--7-8/10--8-7---| (2x)
G --5/7--------------------------9-|
D ---------------------------------|
A ---------------------------------|
E ---------------------------------|

Verse1:
         D                     G                    Bm                     A
e--------------------------------------------------------------------------------------|
B--------------------------------------------------------------------------------------|
G--------------------------------------------------------------------------------------|
D-7-7-7-7-7-7-7-7-7-7------------------------4-4-4-4-4-4-4-4-4-4-----------------------|
A-5-5-5-5-5-5-5-5-5-5---5-5-5-5-5-5-5-5-5-5--2-2-2-2-2-2-2-2-2-2--7-7-7-7-7-7-7-7-7-7--|
E-----------------------3-3-3-3-3-3-3-3-3-3-----------------------5-5-5-5-5-5-5-5-5-5--|

e ---------------------------------|
B ------8/10--8-7-8--7-8/10--8-7---| (2x)
G --5/7--------------------------9-|
D ---------------------------------|
A ---------------------------------|
E ---------------------------------|

Verse2:
         D                     G                    Bm                     A
e--------------------------------------------------------------------------------------|
B--------------------------------------------------------------------------------------|
G--------------------------------------------------------------------------------------|
D-7-7-7-7-7-7-7-7-7-7------------------------4-4-4-4-4-4-4-4-4-4-----------------------|
A-5-5-5-5-5-5-5-5-5-5---5-5-5-5-5-5-5-5-5-5--2-2-2-2-2-2-2-2-2-2--7-7-7-7-7-7-7-7-7-7--|
E-----------------------3-3-3-3-3-3-3-3-3-3-----------------------5-5-5-5-5-5-5-5-5-5--|


Bridge:

             G                    A                    D                    G
e----------------------------------------------------------------------------------------|
B----------------------------------------------------------------------------------------|
G----------------------------------------------------------------------------------------|
D----------------------------------------------7-7-7-7-7-7-7-7-7-7-----------------------|(2x)
A----5-5-5-5-5-5-5-5-5-5--7-7-7-7-7-7-7-7-7-7--5-5-5-5-5-5-5-5-5-5--5-5-5-5-5-5-5-5-5-5--|
E----3-3-3-3-3-3-3-3-3-3--5-5-5-5-5-5-5-5-5-5-----------------------3-3-3-3-3-3-3-3-3-3--|


Chorus:


         D                     G                    Bm                     A
e--------------------------------------------------------------------------------------|
B--------------------------------------------------------------------------------------|
G--------------------------------------------------------------------------------------|
D-7-7-7-7-7-7-7-7-7-7------------------------4-4-4-4-4-4-4-4-4-4-----------------------|
A-5-5-5-5-5-5-5-5-5-5---5-5-5-5-5-5-5-5-5-5--2-2-2-2-2-2-2-2-2-2--7-7-7-7-7-7-7-7-7-7--|
E-----------------------3-3-3-3-3-3-3-3-3-3-----------------------5-5-5-5-5-5-5-5-5-5--|


e -------------------------------------------------|
B -------------------------------------------------|
G -------------------------------------------------|
D -7--5-5-5-5-5-5-5-5-5-5--5--7-7-7-7-7-7-7-7-7-7--|
A -5--3-3-3-3-3-3-3-3-3-3--3--5-5-5-5-5-5-5-5-5-5--|
E -------------------------------------------------|

Adlib:

e ----10/12--10--10h9--10--10/12--10-----|
B -----------------------------------10--|
G ---------------------------------------|
D ---------------------------------------|
A ---------------------------------------|
E ---------------------------------------|

             G                    A                    D                    G
e----------------------------------------------------------------------------------------|
B----------------------------------------------------------------------------------------|
G----------------------------------------------------------------------------------------|
D----------------------------------------------7-7-7-7-7-7-7-7-7-7-----------------------|(2x)
A----5-5-5-5-5-5-5-5-5-5--7-7-7-7-7-7-7-7-7-7--5-5-5-5-5-5-5-5-5-5--5-5-5-5-5-5-5-5-5-5--|
E----3-3-3-3-3-3-3-3-3-3--5-5-5-5-5-5-5-5-5-5-----------------------3-3-3-3-3-3-3-3-3-3--|


         D                     G                    Bm                     A
e--------------------------------------------------------------------------------------|
B--------------------------------------------------------------------------------------|
G--------------------------------------------------------------------------------------|
D-7-7-7-7-7-7-7-7-7-7------------------------4-4-4-4-4-4-4-4-4-4-----------------------|
A-5-5-5-5-5-5-5-5-5-5---5-5-5-5-5-5-5-5-5-5--2-2-2-2-2-2-2-2-2-2--7-7-7-7-7-7-7-7-7-7--|
E-----------------------3-3-3-3-3-3-3-3-3-3-----------------------5-5-5-5-5-5-5-5-5-5--|

Fill:


e ---------------------------------|
B ------8/10--8-7-8--7-8/10--8-7---|
G --5/7--------------------------9-|
D ---------------------------------|
A ---------------------------------|
E ---------------------------------|
            
Submit corrections

↑ Back to top | Tablatures and chords for acoustic guitar and electric guitar, ukulele, drums are parodies/interpretations of the original songs. You may use it for private study, scholarship, research or language learning purposes only