Home » D » Dawn »

Dawn - Salamat Tabs

Artists:  A B C D E F G H I J K L M N O P Q R S T U V W X Y Z # 

Salamat Tabs

(ver. 1) Click to play this song!
Dawn


09212165529

Intro:
E|----5-3-2-3--2-3-5--3-2-----2-3--||----5-3-2-3--2-3-5--3-2-----3-----|
B|--3---------------------5~~------||--3---------------------5~~----3--|
G|---------------------------------||----------------------------------|
D|---------------------------------||----------------------------------|
A|---------------------------------||----------------------------------|
E|---------------------------------||----------------------------------|

stanza
salamat tayoy magkasamang muli
salamat may gabing nakalaan sa kaunting kasiyahan

Interlude
E|----5-3-2-3--2-3-5--3-2------2-3--||----5-3-2-3--2-3-5--3-2-----3----|
B|--3---------------------5~~-------||--3---------------------5~~---3--|
G|----------------------------------||---------------------------------|
D|----------------------------------||---------------------------------|
A|----------------------------------||---------------------------------|
E|----------------------------------||---------------------------------|

stanza
salamat at tayo'y magkasamang muli
salamat, at sa pagpawi ng uhaw ay may darating na araw

refrain:
strum(no strumming pattern)
    G    A    D    G    D  G  B  A
E|----------------------------------|
B|----------------------------------|
G|------------7---------7-----4-----|
D|--5----7----7----5----7--5--4--7--|
A|--5----7----5----5----5--5--2--7--|
E|--3----5----0----3----0--3--0--5--|

       G         A  
kay tamis ng ating samahan
       D5        G
sa lungkot at kaligayahan
G          A          D5            G     
tunay na kaibigan, kasamang maaasahan
  D           G          B       A
salamat, at tayoy may pinagsamahan
 D          G         B    A
salamat, tunay kong kaibigan

solo:
(rythm)
E|------------------------------|
B|------------------------------|
G|--5--5~~--7~~-5--5~~-7~~------|
D|--5--5~~--7~~-5--5~~-7~~-7~~--|
A|--3--3~~--5~~-3--3~~-5~~-7~~--|
E|--0--0~~--0~~-0--0~~-0~~-5~~--|

(repeat refrain)

finale:salamat saiyo kaibigan ko(2x)


09212165529
            
Submit corrections

↑ Back to top | Tablatures and chords for acoustic guitar and electric guitar, ukulele, drums are parodies/interpretations of the original songs. You may use it for private study, scholarship, research or language learning purposes only