» » »

David Lee Murphy - Loco Tabs

Artists:  A B C D E F G H I J K L M N O P Q R S T U V W X Y Z # 

Loco Tabs

(ver. 2) Click to play this song!
David Lee Murphy
 Rating:
4/5 (4 votes)

 Loco lessons Tabs too difficult? Try these video lessons and learn fast
 
                Loco   David Lee Murphy

Acoustic guitar, drop D tuning


Mini solo  (0:56)

E-----5------------------------------------------------------
B-5(7)-(7)5-3----3-3---5(7)5-3-------------------------------
G--b-----r--------------b--r---------------------------------
D--------------------------------2/4-2-0---------------------
A----------------------------------------2-0---0-------------
D--------------------------------------------4---2-0---------





Solo  (1:59)

E-5----5-----------------------b--------b--------b--------------------
B---------------8-7-8-7-5-----6(7)p5p3-6(7)p5p3-6(7)p5p3--------------
G----7----7---7-----------7------------------------------5-5-5-5-5-7--
D---0----0------------------------------------------------------------
A---------------------------------------------------------------------
D---------------------------------------------------------------------

E---------------------------------------------------------------------
B---------------------------------------------------------------------
G---------------------------------------------------------------------
D-3p2p0-5p3p0-5p3p0-0---0--------------------------------0------------
A---------------------3---3--b-r---b-r---b-r---b-r----/3----b-r-------
D---------------------------3(4)3-3(4)3-3(4)3-3(4)3-0------3(4)3-0----

E---------------------------------------------------------------------
B---------------------------------------------------------------------
G-------b-r---b-r-----------------------------------------------------
D----0-3(4)3-3(4)3-0----key change------------------------------------
A-/3------------------------------------------------------------------
D---------------------------------------------------------------------
            
Submit corrections


        Loco lessons Hard to play? Try these video lessons and learn fast Loco lessons
        
↑ Back to top | Tablatures and chords for acoustic guitar and electric guitar, ukulele, drums are parodies/interpretations of the original songs. You may use it for private study, scholarship, research or language learning purposes only