» » »

David Guetta - Hey Mama Tabs

Artists:  A B C D E F G H I J K L M N O P Q R S T U V W X Y Z # 

Hey Mama Tabs

(ver. 2) Click to play this song!
David Guetta
 Rating:
2.3/5 (24 votes)

 Hey Mama  lessons Tabs too difficult? Try these video lessons and learn fast
 
                e|---------------------------------------------------------------------------!
B|--8---5---8---5---5---5---8---5---5p0-5--3--5--5--5--5--5--5---------------|   
G|---------------------------------------------------------------------------|
D|---------------------------------------------------------------------------|
A|---------------------------------------------------------------------------|
E|---------------------------------------------------------------------------|

e|---------------------------------------------------------------------------|
B|---3--5--5--5--5--5--5---3--5--5--5--5--5--5--5--5-------------------------!
G|---------------------------------------------------------------------------|
D|---------------------------------------------------------------------------|
A|---------------------------------------------------------------------------|
E|---------------------------------------------------------------------------|

e|---------------------------------------------------------------------------|
B|-0--5--5--5--0--5--5--5--0--5--5--5--5--3--3--0--3--0----------------------|
G|---------------------------------------------------------------------------|
D|---------------------------------------------------------------------------|
A|---------------------------------------------------------------------------|
E|---------------------------------------------------------------------------|

e|--0--5--5--5--5--4-4--6--5--0--5--5--5--5--4--4--3--0----------------------|
B|---------------------------------------------------------------------------|
G|---------------------------------------------------------------------------|
D|---------------------------------------------------------------------------|
A|---------------------------------------------------------------------------|
E|---------------------------------------------------------------------------|

e|-5--5--5--5--4--6--5--5--12--------------12--------------------------------|
B|-----------------------------12--12--12------12--12--12--------------------|
G|---------------------------------------------------------------------------|     X2
D|---------------------------------------------------------------------------|
A|---------------------------------------------------------------------------|
E|---------------------------------------------------------------------------|
            
e|---------------------------------------------------------------------------|
B|---8--5--8--5--5--8--5--5p0--5---------------------------------------------|
G|---------------------------------------------------------------------------|     x2
D|---------------------------------------------------------------------------|
A|---------------------------------------------------------------------------|
E|---------------------------------------------------------------------------|            
Submit corrections


        Hey Mama  lessons Hard to play? Try these video lessons and learn fast Hey Mama  lessons
        
↑ Back to top | Tablatures and chords for acoustic guitar and electric guitar, ukulele, drums are parodies/interpretations of the original songs. You may use it for private study, scholarship, research or language learning purposes only