» » »

David Guetta - Hey Mama Tabs

Artists:  A B C D E F G H I J K L M N O P Q R S T U V W X Y Z # 

Hey Mama Tabs

(ver. 1) Click to play this song!
David Guetta
 Rating:
2.9/5 (24 votes)

 Hey Mama  lessons Tabs too difficult? Try these video lessons and learn fast
 
                Tuning:

e|-0-7-7-7-7-5-5-8-7---0-7-7-7-7-5---------0-7-7-7-7-5-5-8-7-----------------|
B|--------------------------------8-7-5--------------------------------------|
G|---------------------------------------------------------------------------|
D|---------------------------------------------------------------------------|
A|---------------------------------------------------------------------------|
E|---------------------------------------------------------------------------|

e|7-12-7-7-7-7-7-12-7-7-7-7-7---7----------7-7----7-----------7-7------------|
B|-------------------------------5-5-5-5-5--5-------5-5-5-5-5--5-------------|
G|---------------------------------------------------------------------------|
D|---------------------------------------------------------------------------|
A|---------------------------------------------------------------------------|
E|---------------------------------------------------------------------------|            
Submit corrections


        Hey Mama  lessons Hard to play? Try these video lessons and learn fast Hey Mama  lessons
        
↑ Back to top | Tablatures and chords for acoustic guitar and electric guitar, ukulele, drums are parodies/interpretations of the original songs. You may use it for private study, scholarship, research or language learning purposes only