» » »

David Gilmour - Today Tabs

Artists:  A B C D E F G H I J K L M N O P Q R S T U V W X Y Z # 

Today Tabs

(ver. 1) Click to play this song!
David Gilmour
 Rating:
3.2/5 (30 votes)

 Today  lessons Tabs too difficult? Try these video lessons and learn fast
 
                Riff #1 (Main riff)
    Dm#  Em7        A
e|---6\7-777--------5-5-5--5--------------------------------------------------------------------|
B|---7\8-888---x-x--5-5-5--5---x-x--------------------------------------------------------------|
G|---8\9-777---x-x--6-6-6--6---x-x--------------------------------------------------------------|
D|---8\9-999---x-x--7-7-7--7---x-x--------------------------------------------------------------|
A|---6\7-777---x-x--7-7-7--7---x-x--------------------------------------------------------------|
E|---x--------------5-5-5--5--------------------------------------------------------------------|


Riff #2 (Starting from 'Just a day...')
     G        A        B       A
e|----------------------------------------------------------------------------------------------|
B|-----3x-------5x-----3-3-3--------------------------------------------------------------------|
G|---4-4x---4\6-6x---6-4-4-4--4-4-4-------------------------------------------------------------|
D|---5-5x---5\7-7x---7-4-4-4--5-5-5-------------------------------------------------------------|
A|---5-5x---5\7-7x---7-2-2-2--5-5-5-------------------------------------------------------------|
E|---3------3\5------5--------3-3-3-------------------------------------------------------------|


End solo

e|---0--12--0-0----0---0-----------------12-12----12-12-----------12-12-------------------------|
B|---11^11--9-9\11-11--9~----------11\12-12-12----12-12-----11\12-12-12-------------------------|
G|---11^11--9-9\11-11--9~----------11\12-12-12----12-12-----11\12-12-12---9-12p99~--------------|
D|---------------------------------13\14--------------------13\14-------------------------------|
A|----------------------------------------------------------------------------------------------|
E|----------------------------------------------------------------------------------------------|

e|---------12-12----12-12----------------------------------12------0-0-0------------------------|
B|---11\12-12-12----12-12----------------------------15^^--15^^----0-0-0--0---------------------|
G|---11\12-12-12----12-12---15(14)---12-14^-12~~-------------------2\4-4~-4\2-------------------|
D|---13\14------------------------14x----------------------------------------2-2~-0-2-----------|
A|----------------------------------------------------------------------------------------------|
E|----------------------------------------------------------------------------------------------|

e|---12----12----12-----------------------------------------------------------------------------|
B|---15^^--15^^--15^^---------------------------------------------------------------------------|
G|--------------------------------12-14-14^^(14)-12-14^^---14~14^(14)---14^---------------------|
D|-----------------------------14------------------------------------14----14~\-----------------|
A|---------------------------14x----------------------------------------------------------------|
E|----------------------------------------------------------------------------------------------|

e|---------------------------------------12-----------------------------------------------------|
B|---15^^--15^^--15^^~--15^^(15)-12--15~~--15^^--------14-14^(14)-12--14^-14~-12~---------------|
G|--------------------------------------------------------------------------------14-14^--------|
D|----------------------------------------------------------------------------------------------|
A|----------------------------------------------------------------------------------------------|
E|----------------------------------------------------------------------------------------------|

e|--------------------------------------------------12-12-12------------------------------------|
B|----------------------------------------11\12-----12-12-12x12---12-12-12-12-12-12-12--14-12~--|
G|--12------------------------------------11\12-12--12-12-12x12---12-12-12-12-12-12-12--14-12~--|
D|-----14-14~-----0x-0x-0x-0x-0x-0h2~-----------12----------x-----------------------------------|
A|----------------------------------------------------------------------------------------------|
E|----------------------------------------------------------------------------------------------|

e|-----------------------------0-0--0---0-0-----------------------------------------------------|
B|---12-12-12-12-12x12--------\8-7--3-3\5-3~----------------------------------------------------|
G|---12-12-12-12-12x12------------------------------16(14)------------12-14-14^---14^^14--------|
D|-----------------x------------------------------------------------14------------------14-14~~-|
A|----------------------------------------------------------------------------------------------|
E|----------------------------------------------------------------------------------------------|            
Submit corrections


        Today  lessons Hard to play? Try these video lessons and learn fast Today  lessons
        
↑ Back to top | Tablatures and chords for acoustic guitar and electric guitar, ukulele, drums are parodies/interpretations of the original songs. You may use it for private study, scholarship, research or language learning purposes only