» » »

David Gilmour - Rattle That Rock Tabs

Artists:  A B C D E F G H I J K L M N O P Q R S T U V W X Y Z # 

Rattle That Rock Tabs

(ver. 1) Click to play this song!
David Gilmour
 Rating:
4/5 (1 vote)

 Rattle That Rock  lessons Tabs too difficult? Try these video lessons and learn fast
 
                Tuning:standard

This is my first tab. Hope you all like it.

If there's a heaven....
e|---------------------------------------------------------------------------|
B|----------------------11b13~~~~--------------------------------------------|
G|-----------------------------------10b12-----------------------------------|
D|-----------------------------------------8b--------------------------------|
A|--------------------------------------------10-10~~~\----------------------|
E|---------------------------------------------------------------------------|

e|---------------------------------------------------------------------------|
B|--------11-11---13-13---16b18~~~~------------------------------------------|
G|---/12----------------------------------------8----------------------------|
D|----------------------------------------/10-------10-10\-------------------|
A|---------------------------------------------------------------------------|
E|---------------------------------------------------------------------------|

e|---------------------------------------------------------------------------|
B|--------------------------X------------------------------------------------|
G|--/8--------------8b------X---10b---8--------------------------------------|
D|------10-10-8-10----------X-------------10---------------------------------|
A|---------------------------------------------------------------------------|
E|---------------------------------------------------------------------------|

e|-------------------------------------------------------------------------------|
B|------------13------11--13----------------11-----13b15----13~~~\---------------|
G|-------/12------12--------------------13---------------------------------------|
D|-------------------------------------------------------------------------------|
A|-------------------------------------------------------------------------------|
E|-------------------------------------------------------------------------------|

e|---------------------------------------------------------------------------|
B|--10b11r--8------------------------11b13r--8--------11-11---11b13~~~~~~----|
G|---------------10b11r--8-----------------------10--------------------------|
D|---------------------------------------------------------------------------|
A|---------------------------------------------------------------------------|
E|---------------------------------------------------------------------------|            
Submit corrections


        Rattle That Rock  lessons Hard to play? Try these video lessons and learn fast Rattle That Rock  lessons
        
↑ Back to top | Tablatures and chords for acoustic guitar and electric guitar, ukulele, drums are parodies/interpretations of the original songs. You may use it for private study, scholarship, research or language learning purposes only