» » »

David Gilmour - Murder Tabs

Artists:  A B C D E F G H I J K L M N O P Q R S T U V W X Y Z # 

Murder Tabs

(ver. 1) Click to play this song!
David Gilmour
 Rating:
4.4/5 (7 votes)

 Murder lessons Tabs too difficult? Try these video lessons and learn fast
 
                MURDER

"About Face"
David Gilmour

TAB (alternate)

CAPO on the 3rd fret

INTRO/VERSE:
Intro...."Some of them standing...

D (f)
      strum       strum   (etc)
E ---5----------5--|
B ---6----------6--|
G ---5-----3h5--5--|
D 3----------------|
A -----------------|
E -----------------|

Some are waiting in line
          Am (cm)    D(f)
       E --3-
       B --4-
       G --5-
       D -5--
       A 3---
       E ----


D(f)
As if there was something that they

D (f)
thought they might find

          Am (cm)    C(Eb)          G(Bb) Am(cm)
       E --3--------3------3----3---------3------|
       B --4--------4------4----4----3----4------|
       G --5--------3------3----3----3----5------|
       D --5--------5-3h5--5----5----3----5--3h5-|
       A 3----5--6------------6---3h5----3-------|
       E ----------------------------------------|


Am (cm)                       Em (gm)      D (f)        C (Eb)
Taking some strength from the feelings that always were shared
E  -3-------------------------3------------5------------3----|
B  -4-------------------------3------------6------------4----|
G  -5-------------------------3------------5------------3----|
D  -5--3h5--------------------5-----------5-------------5----|
A  3--------------------------5------------------------6-----|
E  --------------------------3-------------------------------|


  C (Eb) Am(cm)                       D(f)         G(Bb)
            And in the background, the eyes that just stared
E -3-----3----------------------------5------------6------6--|
B -4-----4----------------------------6------------3------3--|
G -3-----5----------------------------5------------3------3--|
D -5-----5-3h5------------------------3------------3--3---3--|
A 6---5--3-----------------------------------------5---5--5--|
E -------------------------------------------------6------6--|


2nd verse (same chords):

What was it brought you out here in the dark
was it your only way of making your mark
did you get rid of all the voices in your head
do you now miss them and the things that they said

Fretless bass solo: (played by Dave)
G 9*--7-5-4------------7-5-----12-10-9-7---9--10-9-7-9--7--------|
D ----------5--7-----7-----5------------------------------10-7---|
A -----------7-----8--------7---------------------------------10-|
E ---------------------------------------------------------------|
  *First note fades in by backwards echo effect

G 14-10-12-12-10-------10-----------16---------19--------|
D ---------------12-10---12---14-14-----14-14------17-17-|
A -------------------------------------------------------|
E -------------------------------------------------------|

G ------10-14--10-----------12--10-9-7----------|
D ---10----------10------10--------------10-7---|
A 12------------------10---------------------10-|
E ----------------------------------------------|

Chorus:
( no capo):

G                             Dm           G
   on your own admission you raised up the knife
G                             Dm           F         (C/E)  Dm
and you brought it down ending another man's life
Dm                            Am     G      F
and when is was done you just threw down the blade
Dm                                      G          C
while the red blood spread wider like the anger you made

2nd Chorus (same chords):
I don't want this anger burning in me
It's something from which I've tried so hard to be free
and none of the tears that we cry in sorrow or rage
can make any difference or turn back the page

Solo (same chords as chorus):
  full    h  1/2  p                        full
E ----------------------------------------------8*-10-10--8--7-8--|
B 10^---10-8-------------------------------10^--10-12-12--10-8-10-|
G -----------9^--9-7---------------12-----------------------------|
D -------------------------------10-------------------------------|
A --------------------10*------10---------------------------------|
E ----------------------------------------------------------------|
                        *bar vib.                *Another gtr overdubbed
     full h
E --------------------------------------7-----12-|
B -8-8^--------------------------13-----8-----13-|
G 5------5-7--xx9-----7--------xx10-----7-----12-|
D -------------------------7-----12--------------|
A ---------------10----10------------------------|
E -----------------------------------------------|
            
Submit corrections


        Murder lessons Hard to play? Try these video lessons and learn fast Murder lessons
        
↑ Back to top | Tablatures and chords for acoustic guitar and electric guitar, ukulele, drums are parodies/interpretations of the original songs. You may use it for private study, scholarship, research or language learning purposes only