» » »

David Gilmour - In Any Tongue Tabs

Artists:  A B C D E F G H I J K L M N O P Q R S T U V W X Y Z # 

In Any Tongue Tabs

(ver. 1) Click to play this song!
David Gilmour
 Rating:
3.1/5 (26 votes)

 In Any Tongue  lessons Tabs too difficult? Try these video lessons and learn fast
 
                Tuning: Standard ( EADGBe )

Solo: 4:57    ( with Whammy pedal )

     +    +    +    +    +    +    +    +   

e|---15---15b16/13-------15---15b16/13----|
B|---------------------x------------------|
G|-------------------x--------------------|
D|----------------------------------------|
A|----------------------------------------|
E|----------------------------------------|

e|----------------6-8--------------------------|
B|-------------8b9----9-6-----8----------------|
G|------8-8h10------------8b10-----------------|
D|--/10-------------------------10b11-8h10-10--|
A|---------------------------------------------|
E|---------------------------------------------|

e|--------------------------------------/13-15-15b16---15-13-13--------------------|
B|--------8b9----8b9br8-----------------------------------------16--13-16b18br16---|
G|------8---------------10--8-8---5h8h5--------------------------------------------|
D|--/10----------------------------------------------------------------------------|
A|---------------------------------------------------------------------------------|
E|---------------------------------------------------------------------------------|

e|----------------------------------------------13-15-------------------------------|
B|-16b18--16b18-16-13------13-----------13-16b18------16-13------13-16b18-16b18-13--|
G|--------------------15b17---15-15b17----------------------15b17-------------------|
D|----------------------------------------------------------------------------------|
A|----------------------------------------------------------------------------------|
E|----------------------------------------------------------------------------------|

e|---15b16-15-15h13----------------------------------------------------------|
B|-x----------------16-16-----------/9-9-8h9h8------9--9h8h6-----6-----------|
G|-------------------------15b17---------------10-8----------8b10--8b10------|
D|---------------------------------------------------------------------------|
A|---------------------------------------------------------------------------|
E|---------------------------------------------------------------------------|

e|-------------------------------------------------------------------------|
B|-------------------------------------------------------------------------|
G|---------------------------------------------8-8h10//12//13//15--15b17---|
D|----6-8-8b10br8brb10--8-6-8b10br8brb10---/10-----------------------------|
A|-/8----------------------------------------------------------------------|
E|-------------------------------------------------------------------------|

    +   +   +   +   +   +   +

e|----15-15h13--13h15----13~-------------------------------------------------|
B|--x------------------------------------------------------------------------|
G|---------------------------------------------------------------------------|
D|---------------------------------------------------------------------------|
A|---------------------------------------------------------------------------|
E|---------------------------------------------------------------------------|            
Submit corrections


        In Any Tongue  lessons Hard to play? Try these video lessons and learn fast In Any Tongue  lessons
        
↑ Back to top | Tablatures and chords for acoustic guitar and electric guitar, ukulele, drums are parodies/interpretations of the original songs. You may use it for private study, scholarship, research or language learning purposes only