» » »

David Gilmour - Faces Of Stone Tabs

Artists:  A B C D E F G H I J K L M N O P Q R S T U V W X Y Z # 

Faces Of Stone Tabs

(ver. 1) Click to play this song!
David Gilmour
 Rating:
2.6/5 (24 votes)

 Faces Of Stone  lessons Tabs too difficult? Try these video lessons and learn fast
 
                First solo: 
2:40
|-------------------------------------------------------------|
|-13b15-(15)~~-13p10-13~-x13b15r13----10~---------------------|
|----------------------------------12-----12b14r10-12---------|
|-----------------------------------------------------12-12---|
|-------------------------------------------------------------|
|-------------------------------------------------------------|

|-------------------10-12-12b14-12-------------------|
|-----------------10---------------13b15-13~-13b15~--|
|-10-12-12b14r10-------------------------------------|
|----------------------------------------------------|
|----------------------------------------------------|
|----------------------------------------------------|

Outro:
4:10
|----12~-10-------10~-8s-----------------------------------|
|---x-------10~--x-------5~-------------------10-13b-13~---|
|--x------------x------------7-9-9br9-5s7-7s9--------------|
|----------------------------------------------------------|
|----------------------------------------------------------|
|----------------------------------------------------------|
4:30
|------------------------------------------------------------------------|
|-13h15b-15-17-17b-15-17-15-13-15---13-------13b-13h15-15h17-17b-17--17b-|
|---------------------------------14----14-14----------------------------|
|------------------------------------------------------------------------|
|------------------------------------------------------------------------|
|------------------------------------------------------------------------|

|-14-15---15h17-17-17-17h20-20b22-(22)-(22)r20b22~~-(22)-20b22-22--|
|------------------------------------------------------------------|
|------------------------------------------------------------------|
|------------------------------------------------------------------|
|------------------------------------------------------------------|
|------------------------------------------------------------------|

|-pb22r20-20-20—17h20-20b21~~-17----17-----------------------------------|
|--------------------------------20----18~-17~-15~-13~-17b18-pb18r15h17~-|
|------------------------------------------------------------------------|
|------------------------------------------------------------------------|
|------------------------------------------------------------------------|
|------------------------------------------------------------------------|
5:08
|-------------------------------------------------------------------|
|-------------------------------------------------------------------|
|-x7b-7~-5-----------------x5-x7-x7b--5-----5~5s7~--7-9-9b-9—5s7-5--|
|----------7p5s3-5p3---5s7--------------5s7-------------------------|
|--------------------5----------------------------------------------|
|-------------------------------------------------------------------|

|--------------------------------------|
|--------------------------------------|
|-------5s7-5--------------------------|
|-7p5h7-------7-5s7-5-3----------------|
|-----------------------5-3-5p3h5------|
|--------------------------------------|

            
Submit corrections


        Faces Of Stone  lessons Hard to play? Try these video lessons and learn fast Faces Of Stone  lessons
        
↑ Back to top | Tablatures and chords for acoustic guitar and electric guitar, ukulele, drums are parodies/interpretations of the original songs. You may use it for private study, scholarship, research or language learning purposes only