» » »

David Gilmour - Dont Tabs

Artists:  A B C D E F G H I J K L M N O P Q R S T U V W X Y Z # 

Dont Tabs

(ver. 1) Click to play this song!
David Gilmour
 Rating:
4.3/5 (28 votes)

 Dont  lessons Tabs too difficult? Try these video lessons and learn fast
 
                01:50
e|------------|---------------|--------------|-------------------|
B|------------|---------------|--------------|---------b------p--|
G|-----b--r---|---b--b--r-3-5-|--s--5--s-----|--s--5---7-7-5-7-5-|
D|-----5----7-|---5--5--------|-5\7---7/5~~~-|-5\7---7-----------|
A|-3-3--------|-3-------------|--------------|-------------------|
E|------------|---------------|--------------|-------------------|

                                        s
e|-b--b--b-rp-------------rbp----p--|-11\13-13---b-|----------------------------------|
B|-8--8--8---6---8---6-8--8--6--8-6-|-11\13-13--16-|--b---b--13--rbp--------b--b---13-|
G|-------------7---7----------------|--------------|-12--12-----12--10--12-12-12------|
D|----------------------------------|--------------|----------------------------------|
A|----------------------------------|--------------|----------------------------------|
E|----------------------------------|--------------|----------------------------------|

02:15
e|-5--------------------|-----------------------|-----------|
B|-5-7-5-b--r------b--b-|-rbp---------brp-------|--s--6--s--|
G|-------5-~~~-3-5-5--5-|-5--3---3-5--5--3-5~~~-|-5\7---5/7-|
D|----------------------|------5----------------|-----------|
A|----------------------|-----------------------|-----------|
E|----------------------|-----------------------|-----------|

02:23
    s       s                               s 
e|-3\8-8--11\13-13-13-13----s------------|-6\8-8-8---------|--------------------|
B|-3\8-8--11\13-13-13-13--16\15--14----X-|-6\8-8-8----b----|--s-----b--b---rb---|
G|------------------------16\15--14----X-|---------10-8----|-3\5-5--8--8---8--5-|
D|----------------------------------15---|--------------10-|-3\5-5--------------|
A|---------------------------------------|-----------------|--------------------|
E|---------------------------------------|-----------------|--------------------|
                                   hold       hold
                                 b bend   b  bends   br     h  p
e|-b--brp-------------rbp-----|-15--15---15--15-15--15-13-12-13-12-------|
B|-8--8--6---8---6-8--8--6--8-|------------------------------------13----|
G|---------7---7--------------|---------------------------------------12-|
D|----------------------------|------------------------------------------|
A|----------------------------|------------------------------------------|
E|----------------------------|------------------------------------------|


e|------------b------brp-----p------|
B|---s---13--15-15--15--13-15-13----|
G|-12\14-------------------------14-|
D|----------------------------------|
A|----------------------------------|
E|----------------------------------|            
Submit corrections


        Dont  lessons Hard to play? Try these video lessons and learn fast Dont  lessons
        
↑ Back to top | Tablatures and chords for acoustic guitar and electric guitar, ukulele, drums are parodies/interpretations of the original songs. You may use it for private study, scholarship, research or language learning purposes only