» » »

David Gilmour - Dancing Right In Front Of Me Tabs

Artists:  A B C D E F G H I J K L M N O P Q R S T U V W X Y Z # 

Dancing Right In Front Of Me Tabs

(ver. 1) Click to play this song!
David Gilmour
 Rating:
4.3/5 (21 vote)

 Dancing Right In Front Of Me lessons Tabs too difficult? Try these video lessons and learn fast
 
                [Intro]
The following intro gives an idea of the bass line and chords.


  Cm                Eb            Ab             Eb             Fm          Gm
e|-----3--3--3-3--|---3--3--3-3--|---4--4--4-4--|---3--3--3-3--|---1--1--1-1--|
B|-----4--4--4-4--|---4--4--4-4--|---4--4--4-4--|---4--4--4-4--|1--1--1--1-1-3|
G|0/5--5--5--5-5--|3--3--3--3-3--|---5--5--5-5--|3--3--3--3-3--|---1--1--1-1--|
D|-----5--5--5-5--|---5--5--5-5--|6--6--6--6-6--|---5--5--5-5--|---3--3--3-3--|
A|----------------|--------------|--------------|--------------|--------------|
E|----------------|--------------|--------------|--------------|--------------|
                                  *
  Eb               Ab              G
e|-----3--3--3-3--|---4--4--4-4--|---3--3--4-3--|---3--3--3-3--|
B|--4--4--4--4-4--|---4--4--4-4--|---3--3--4-3--|---3--3--3-3--|
G|-----3--3--3-3--|---5--5--5-5--|---4--4--4-4--|---4--4--4-4--|
D|-----5--5--5-5--|---6--6--6-6--|5--5--5--5-5--|5--5--5--5-5--|
A|--------6-------|5-------------|--------------|--------------|
E|----------------|--------------|3-------------|--------------|
              *
0.20
  G/Ab    Fm     G            Fm   G            Ab  G
e|--------------|------------|------------|-------------|
B|--------------|------------|------------|-------------|
G|--------------|------------|------------|-------------|  [Fig 1]
D|--------------|------------|------------|-------------|
A|--------------|-------2--2/|8--8\5--5--5|\2--2--------|
E|-3h4--4\1--1-1|/3--3-------|------------|------4--3---|

There are some fills in the intro (at *)
0.05      0.14
e|-1/3--|--8--8--8----7---------|
B|------|---------------8--6--8-|
G|------|-----------------------|
D|------|-----------------------|
A|------|-----------------------|
E|------|-----------------------|

[Verse 1]
Cm                  Eb 
  Maybe I should've shown you,
Ab          Eb 
  A clearer plainer truth,
Fm                        Eb
  That doesn't care about summer, 
      Ab         G          G
  And less about youth.

[Verse 2]
Cm            Eb   
  Now in this silence, 
Ab             Eb
  What more is there to do,
Fm              Eb 
  Something has broken, 
      Ab       G            G
  In me and in you.

[Verse 3]
Cm              Eb   
  In watchful dependence,
Ab      Eb
     A satellite spins,
Fm           Eb   
  Cautiously circling, 
Ab                   G      G
  The space that I'm in.

[Verse 4]
Cm                 Eb   
  It's bouncing me signals,
Ab   Eb
  Distorted by time,
Fm               Eb   
  I'm stuck here waiting,
      Ab             G      G
  For the stars to align.

[Fig 1]

[Bridge]

Dm                 E7           
  Dancing right in front of me, 
Am                Am
  All the lives I once could see,
Dm                 E7        
  Slipping to and slipping fro, 
Am             Am
  Disappearing who's to know,
      Dm              E7
  Where they have gone just out of sight,
Am                 Am
  Into the shadows of my night,
Dm                    E7         Am    G 
  Who started out as stars in my eyes


  Cm    Eb          Ab        Eb          Fm        Eb       Ab       G
e|----|-----------|----------|----------|----------|--------|--------|-----|
B|----|-----4-3-4-|----4-3-4-|----4-3-4-|----4-3-4-|--------|--------|-----|
G|----|-----------|-5--------|-3--------|-5--------|-3---0--|-1------|-0---|
D|----|-----------|----------|----------|----------|--------|------3-|-----|
A|----|-----------|----------|----------|----------|--------|--------|-----|
E|----|-----------|----------|----------|----------|--------|--------|-----|
            [voice]    [piano]    [voice]    [piano]

[Solo]
2.48
1               Cm                   Eb
e|-------------|--------------------|-------------------------------|
B|-------------|--------------------|-------------------------------|
G|------8--10--|-10b11-10-8\(5)/(8)-|-------8--10-10b11-10--8----8~~|
D|-/10---------|--------------------|---/10-------------------10----|
A|-------------|--------------------|-------------------------------|
E|-------------|--------------------|-------------------------------|

4 Ab                Eb                   Fm
e|-----------------|-------------------|----------------------------|
B|-----/11~~-11~~--|-11~~---/13~~-13~~-|-13~~-------16--------------|
G|-----------------|-------------------|----------------13----------|
D|-----------------|-------------------|----------------------------|
A|-----------------|-------------------|----------------------------|
E|-----------------|-------------------|----------------------------|

7  Eb                       Ab                 G
e|--------------15--------|-------------------|---------------------|
B|----16b18--16----16-----|-6b8--4---3--------|------------3------3-|
G|--------------------17~~|--------5---5--5~~-|--------/5------5----|
D|------------------------|-------------------|---------------------|
A|------------------------|-------------------|---------------------|
E|------------------------|-------------------|---------------------|

10 G                    [Fig 1]@3.09
e|---------------------|------------------|
B|---------13~~--13~~--|-13~--------------|
G|-5~~-----------------|------------------|
D|---------------------|------------------|
A|---------------------|------------------|
E|---------------------|------------------|

[Piano Interlude]
Now I like nearly everything David Gilmour has done...this bit is the 'nearly'
However, it is played over the bridge chords of [Dm, E7, Am, Am] x 4

[Verse 5]
Cm          Eb   
  There's a wide horizon,
Ab          Eb
  Go on now take a chance,
Fm             Eb 
  Your star is shining,
Ab            G
  It lights a brighter path.

[Verse 6]
Cm                 Eb
  It's all there inside you,
Ab             Eb
  Take one day at a time,
Fm            Eb 
  Reeling, free-wheeling,
Ab          G               G
  I want to watch you fly


[Outro]
Starts at 4.29 with Fig1 then @4.38
1                Cm             Eb                Ab                  Eb
e|--------------|--------------|-----------------|-------------------|---------------|
B|--------------|--------------|-----------------|-------------------|------------11-|
G|-----10b11--8/|--------------|----10b11--8-----|--8/10\8~~~-3/5\3~~|--------/12----|
D|--------------|--------------|--------------10-|-------------------|---------------|
A|--------------|--------------|-----------------|-------------------|---------------|
E|--------------|--------------|-----------------|-------------------|---------------|

6 Fm              Eb             Ab                 G                Cm
e|---------------|--------------|------------------|----------------|----------------|
B|-13~~~~--11h13-|p11~~~---8----|-15b16r15-13------|-------------11-|-13-13-13p11-13-|
G|---------------|--------------|-------------15b17|-12------/12----|----------------|
D|---------------|--------------|------------------|----------------|----------------|
A|---------------|--------------|------------------|----------------|----------------|
E|---------------|--------------|------------------|----------------|----------------|

11 Eb            Ab                  Eb              Fm
e|--------------|-------------------|---------------|--------------------------------|
B|-----------11-|-13--13--13p11--13-|11\---------16b|18~~(16)pb18~~(16)pb18~~---16b20|
G|--------/12---|-------------------|---------------|--------------------------------|
D|--------------|-------------------|---------------|--------------------------------|
A|--------------|-------------------|---------------|--------------------------------|
E|--------------|-------------------|---------------|--------------------------------|

15 Eb             Ab                     G                Cm
e|---------------|----------------------|----------------|---------------------------|
B|r16\-----------|13----------13\--15b16|r15\---------12b|13(12)pb13--15b16(15)pb16--|
G|----------15b17|---15-12-15-----------|----------------|---------------------------|
D|---------------|----------------------|----------------|---------------------------|
A|---------------|----------------------|----------------|---------------------------|
E|---------------|----------------------|----------------|---------------------------|

19 Eb            Ab            Eb             Fm                     Eb
e|--------------|-------------|-15\----------|-15b16r15b16r15-13-11-|-13b15r13-11----|
B|--------------|----13-15-16-|--------------|----------------------|--------------11|
G|-12\----------|-------------|--------------|----------------------|----------------|
D|--------------|-------------|--------------|----------------------|----------------|
A|--------------|-------------|--------------|----------------------|----------------|
E|--------------|-------------|--------------|----------------------|----------------|

24 Ab                                        G                   Cm
e|--------------------------------------8---|-------------------|--------------------|
B|--11b13r11---(11)pb13r11--8--------8---11-|--8----------------|--------------------|
G|-----------------------------10b12--------|-----10---8--------|--------------------|
D|------------------------------------------|-------------10--8-|-10\----------------|
A|------------------------------------------|-------------------|--------------------|
E|------------------------------------------|-------------------|--------------------|

27 Eb                                                  Ab
e|--18b20(18)pb20(18)pb20(18)pb20----(18)pb20(18)pb20-|(18)pb20-------------18b20r18~|
B|----------------------------------------------------|------------------------------|
G|----------------------------------------------------|------------------------------|
D|----------------------------------------------------|------------------------------|
A|----------------------------------------------------|------------------------------|
E|----------------------------------------------------|------------------------------|

29 Eb                 Fm                    Eb                  Ab               
e|-------------------|---------------------|--------------------|------------11-13-14|
B|~~~\---------------|------15b16r15---16--|---------15b16r15-16|-11/13--------------|
G|-------------------|---------------------|-15~----------------|--------------------|
D|-------------------|---------------------|--------------------|--------------------|
A|-------------------|---------------------|--------------------|--------------------|
E|-------------------|---------------------|--------------------|--------------------|

33 G                        Cm                 Eb
e|14b15r14b15r14b15~~\_x-x-|-18-18b20r18--p15-|-18b20(18)pb20(18)pb20(18)pb20r18-p15-|
B|-------------------------|------------------|--------------------------------------|
G|-------------------------|------------------|--------------------------------------|
D|-------------------------|------------------|--------------------------------------|
A|-------------------------|------------------|--------------------------------------|
E|-------------------------|------------------|--------------------------------------|

36 Ab                                      Eb             Fm
e|-18b20(18)pb20(18)pb20(18)pb20-18b20r18-|-18~~---------|---------------------------|
B|----------------------------------------|--------------|13-15-15b16r15b16r15-13----|
G|----------------------------------------|--------------|------------------------11b|
D|----------------------------------------|--------------|---------------------------|
A|----------------------------------------|--------------|---------------------------|
E|----------------------------------------|--------------|---------------------------|

39 Eb                       Ab              G
e|-------------------------|---------------|---------------|
B|13r11b13r11-p-8--8----6-8|-9-8h9p8-6-----|-3-------------|
G|-------------------------|---------------|---4-----------|
D|-------------------------|---------------|---------------|
A|-------------------------|---------------|---------------|
E|-------------------------|---------------|---------------|

            
Submit corrections


        Dancing Right In Front Of Me lessons Hard to play? Try these video lessons and learn fast Dancing Right In Front Of Me lessons
        
↑ Back to top | Tablatures and chords for acoustic guitar and electric guitar, ukulele, drums are parodies/interpretations of the original songs. You may use it for private study, scholarship, research or language learning purposes only