» » »

David Crowder Band - No One Like You Tabs

Artists:  A B C D E F G H I J K L M N O P Q R S T U V W X Y Z # 

No One Like You Tabs

(ver. 3) Click to play this song!
David Crowder Band
 Rating:
4/5 (4 votes)

 No One Like You lessons Tabs too difficult? Try these video lessons and learn fast
 
                
Tuning:Eb Ab Db Gb Bb Eb

Intro:
         Electric 1 
e|-------------------|
B|3-3333--1-0-11-----|
G|------0-0-0-00-----|    x4   And after 1st verse and after 1st chorus
D|-------------------|    (Well call this the riff)
A|-------------------|
E|-------------------|
         Acoustic and Electric 2
e|------3--------------|
B|------3--------------|
G|------0--------------|     Electric 1 does riff 2x then acoustic comes on  
D|------0--------------|     3rd and 4th time.
A|------2--------------|
E|------3--------------|

Verse 1
       Electric 1 
e|-------------------------------------------|
B|-------------------------------------------|
G|-------------------------------------------|
D|----------------7-7---5-5------------------|
A|----5-5---2-2---5-5---3-3------------------|
E|----3-3---0-0------------------------------|
      Acoustic and Electric 2
e|------3-3---0-0---2-2---0-0----------------|
B|------3-3---0-0---3-3---1-1----------------|
G|------0-0---0-0---2-2---0-0----------------|
D|------0-0---2-2---0-0---2-2----------------|
A|------2-2---2-2---------3-3----------------|
E|------3-3---0-0----------------------------|

All other Verses
        Electric 1   Palm Mute
e|-------------------------------------------|
B|-------------------------------------------|
G|-------------------------------------------|
D|----------------------77777777-55555555----|
A|----55555555-22222222-55555555-33333333----|
E|----33333333-00000000----------------------|
        Acoustic     Pick lightly
e|----33333333-00000000-22222222-00000000----|
B|----33333333-00000000-33333333-11111111----|
G|----00000000-00000000-22222222-00000000----|
D|----00000000-22222222-00000000-22222222----|
A|----22222222-22222222----------33333333----|
E|----33333333-00000000----------------------|

Chorus  (and doing the riff, except for the time in the beginning.)
     Electric 1 
e|-------------------------------------------|
B|-------------------------------------------|
G|-------------------------------------------|
D|-------------77777777----------55555555----|
A|----55555555-55555555-22222222-33333333----|
E|----33333333----------00000000-------------|
     Acoustic and Electric 2
e|---33333333-22222222-00000000-00000000-----|
B|---33333333-33333333-00000000-11111111-----|
G|---00000000-22222222-00000000-00000000-----|
D|---00000000-00000000-22222222-22222222-----|
A|---22222222----------22222222-33333333-----|
E|---33333333----------00000000--------------|

Pre-Chorus  (and Bridge chords)
     Acoustic and Electric 2
e|----0---3----------------------------------|
B|----3---3----------------------------------|
G|----2---0----------------------------------|
D|----0---2----------------------------------|
A|--------3----------------------------------|
E|-------------------------------------------|

Outro  (When he sings "There...Is...No...One...Like...Our...God..........Yeah)
        Electric 1
e|-------------------------------------------|
B|-------------------------------------------|
G|-------------------------------------------|
D|---5-5-5-5-5-5-----------------------------|
A|---3-3-3-3-3-3-5-----------5---------------|
E|---------------3-----------3---------------|
        Acoustic and Electric 2
e|---0-0-0-0-0-0-3-----------3---------------|
B|---1-1-1-1-1-1-3-----------3---------------|
G|---0-0-0-0-0-0-0-----------0---------------|
D|---2-2-2-2-2-2-0-----------0---------------|
A|---3-3-3-3-3-3-2-----------2---------------|
E|---------------3-----------3---------------|

The order is:
Intro
Verse
Riff
Verse
Pre-Chourus
Chorus
Riff
Verse
Chorus
Bridge
Chorus
Chorus (drums only)
Chorus 
Outro


This isn't perfectly timed, but if you listen to it, you'll get the rythem.

Thanks for looking!!
===============================================================================
            
Submit corrections


        No One Like You lessons Hard to play? Try these video lessons and learn fast No One Like You lessons
        
↑ Back to top | Tablatures and chords for acoustic guitar and electric guitar, ukulele, drums are parodies/interpretations of the original songs. You may use it for private study, scholarship, research or language learning purposes only