Home » D » David Crowder Band »

David Crowder Band - Intoxicating Tabs

Artists:  A B C D E F G H I J K L M N O P Q R S T U V W X Y Z # 

Intoxicating Tabs

(ver. 2) Click to play this song!
David Crowder Band
 Rating:
4/5 (4 votes)
                (Intro)
/=quick slide
//=slow slide

-----1-------------1------------1--------------|
-----------4------------4------------4---------|
-----------------------------------------------|
-----------------------------------------------|  x2
2/4------2---2//4-----2---2//4-----2---2//4----|
-----------------------------------------------|

-----1-------------1------------1------------1------|
-----------4------------4------------4------------4-|
----------------------------------------------------|
----------------------------------------------------|  repeat until prechorus
2/4------2---2//4-----2---2//4-----2---2//4-----2---|
----------------------------------------------------|
     In toxicating     you are    to  me
            
Submit corrections

↑ Back to top | Tablatures and chords for acoustic guitar and electric guitar, ukulele, drums are parodies/interpretations of the original songs. You may use it for private study, scholarship, research or language learning purposes only