» » »

David Crowder Band - I Need Words Tabs

Artists:  A B C D E F G H I J K L M N O P Q R S T U V W X Y Z # 

I Need Words Tabs

(ver. 1) Click to play this song!
David Crowder Band
 Rating:
4/5 (4 votes)

 I Need Words lessons Tabs too difficult? Try these video lessons and learn fast
 
                This isnt perfect but its preety close

e-------------------------------0--------------------------------------------------
B--------0-------0----------------0-------------0--------0----------------0--------
G------4-------6-------4s6s4--------4--------4--------6-------4s6s4--------4-------
D----2-------4-----------------------------2--------4------------------------------
A--4-------6--------0-------------------4---------6---------0----------------------
E----------------------------------------------------------------------------------

e----------------------------0-------------------------------------------------0-
B--------0--------0------------0-----------0--------0------------------0---------
G------4-------6------4s6s4-----4-------4-------6--------------------------------
D----2-------4------------------------2-------4----------2-2h4p2---------2-------
A--4-------6--------0--------------4--------6--------0---------------------------
E--------------------------------------------------------------------------------
--

Play the above riff throuout the verse

Play this Twice right after he sings “ I need You ”

e-------------------------0----------------0-----------------0-------------
B---------------------0------0-----------0---0-----------0-----0-----------
G------------------4-----------4------4--------4------4----------4---------
D--------2h4----2-------------------2---------------2----------------------
A-------------0-------------------4---------------2------------------------
E--4--4--------------------------------------------------------------------

Then this.
e------------
B------------
G------------
D----2s4s2---
A--0---------
E-------------

Then play the intro to the end.
Play in Christ
            
Submit corrections


        I Need Words lessons Hard to play? Try these video lessons and learn fast I Need Words lessons
        
↑ Back to top | Tablatures and chords for acoustic guitar and electric guitar, ukulele, drums are parodies/interpretations of the original songs. You may use it for private study, scholarship, research or language learning purposes only