» » »

David Crowder Band - Foreverandever Etc Tabs

Artists:  A B C D E F G H I J K L M N O P Q R S T U V W X Y Z # 

Foreverandever Etc Tabs

(ver. 3) Click to play this song!
David Crowder Band
 Rating:
3.8/5 (5 votes)

 Foreverandever Etc lessons Tabs too difficult? Try these video lessons and learn fast
 
                Eb Tuning Capo 4th Fret
or
Standard Tuning Capo 3rd Fret

INTRO:
e-----------------------------------|
b------------------0-0-0-0-0-0-0-0--|
g--4-0-4-0-4-0-4-0-4/5-5-5-5-5-5/7--|
d--0-0------------------------------|
a-----------------------------------|
E-----------------------------------|

e-----------------------------------------|
b------------------0-0-0-0-0-0-0-0--------|
g--4-0-4-0-4-0-4-0-4/5-5-5-5-5-5-5/4-2/0--|
d--0-0------------------------------------|       
a-----------------------------------------|
E-----------------------------------------|  
Play this once then play the next part

e-----------------------------------|
b------------------0-0-0-0-0-0-0-0--|
g--4-0-4-0-4-0-4-0-4/5-5-5-5-5-5/7--|
d--0-0---------------5-5-5-5-5-5/7--|
a--------------------3-3-3-3-3-3/5--|
E--3-3-3-3-3-3-3-3-3-3-3-3-3-3-3/5--|

e-----------------------------------------|
b------------------0-0-0-0-0-0-0-0--------|
g--4-0-4-0-4-0-4-0-4-5-5-5-5-5-5-5/4-2/0--|
d--0-0---------------5-5-5-5-5-5-5--------|
a--------------------3-3-3-3-3-3-3--------|
E--3-3-3-3-3-3-3-3-3-3-3-3-3-3-3-3--------|
Play this through twice then go to the verse

VERSE: This is played slightly palm-muted
e-0-------0-------------0-------0-----------------0---0----------0---0-|
b-0-------0-------------0-------0-----------------0---0----------0---0-|
g-0-------0-------------0-------0-----------------0---0----------0---0-|
d-5-------5-------------5-------5-----------------5---5----------5---5-|
a-2-------3-------------2-------3-----------------2---3----------2---3-|
E---------3---------------------3---------------------3--------------3-|
  B       G             B       G                 B   G          B   G
  Love so   incredible to know   it’s never gonna  go  never gonna  go
  B       G             B       G                 B   G          B   G
  Love too  impossible and true   for anyone but You  For anyone but You


PRE-CHORUS
D                   C9                 Dsus4  
I think i'm on the break of something large, 
                Em11    D/F#
maybe like the breaking of a 
Dsus4                 C9                      Dsus4                Em11
dawn or maybe like a match being lit or the sinking of a ship letting go
         D/F#
gives a better grip


CHORUS:
G5                  C9               G5
I'm finding everything I'll ever need, 
G5       C9                     G5
By giving up, gaining everything,
G5           C9                   
Falling for you for eternity, right here at Your feet where I want to be
        Intro (when you get to the word 'Yours' play the intro)
I am Yours


SECOND VERSE: Played slightly palm-muted
e-0-------0-------------0-------0-----------------0---0----------0---0-|
b-0-------0-------------0-------0-----------------0---0----------0---0-|
g-0-------0-------------0-------0-----------------0---0----------0---0-|
d-5-------5-------------5-------5-----------------5---5----------5---5-|
a-2-------3-------------2-------3-----------------2---3----------2---3-|
E---------3---------------------3---------------------3--------------3-|
  B       G             B       G                 B   G          B   G
  Love so   indellible to know, You're never gonna go, never gonna go
  B       G             B       G                 B   G          B   G
  Love too  unthinkable and true  for anyone but you, for anyone but you


PRE-CHORUS:

D Dsus4        C9                      Dsus4                Em11
   Maybe like a match being lit or the sinking of a ship letting go
         D/F#
gives a better grip

CHORUS:
G5                  C9               G5
I'm finding everything I'll ever need, 
G5       C9                     G5
By giving up, gaining everything,
G5           C9                   
Falling for you for eternity, right here at Your feet where I want to be
          G5
I am Yours     x2

G5 C9 C9 G5
Forever and ever and ever and ever   2x
            
Submit corrections


        Foreverandever Etc lessons Hard to play? Try these video lessons and learn fast Foreverandever Etc lessons
        
↑ Back to top | Tablatures and chords for acoustic guitar and electric guitar, ukulele, drums are parodies/interpretations of the original songs. You may use it for private study, scholarship, research or language learning purposes only