» » »

David Crowder Band - All I Can Say Tabs

Artists:  A B C D E F G H I J K L M N O P Q R S T U V W X Y Z # 

All I Can Say Tabs

(ver. 1) Click to play this song!
David Crowder Band
 Rating:
4.2/5 (5 votes)

 All I Can Say lessons Tabs too difficult? Try these video lessons and learn fast
 
                -------------------------------------------------------------------------------
-------------------------------------------------------------------------------

Tuning: normal (CAPO 3)

       G       D/F#       Em        C
e|-------------------------------------------|
B|--------3------------------------------3---|
G|---------0-0-0h2-2-2p0-0--------------0-0--|
D|----------------0------------------0h2---0-|
A|------2------------------2--2-0h2-3--------|
E|-0h2-3-------2----------0------------------|

Be cool with strumming a couple notes at once to give a smooth, flowing sound. Actually,
I play this at my church, I will just strum the root chords, with simply putting in the
and pull-offs, to give it a nicer sound. But this is the technical way to play it, 
distracting for a worship service.


| /  slide up
| \  slide down
| h  hammer-on
| p  pull-off
| ~  vibrato
| +  harmonic
| x  Mute note
===============================================================================
            
Submit corrections


        All I Can Say lessons Hard to play? Try these video lessons and learn fast All I Can Say lessons
        
↑ Back to top | Tablatures and chords for acoustic guitar and electric guitar, ukulele, drums are parodies/interpretations of the original songs. You may use it for private study, scholarship, research or language learning purposes only