Home » D » David Bowie »

David Bowie - Ziggy Stardust Bass

Artists:  A B C D E F G H I J K L M N O P Q R S T U V W X Y Z # 

Ziggy Stardust Bass

(ver. 3) Click to play this song!
David Bowie
----------------------------------------------------------------------------
			     Ziggy Stardust - David Bowie
----------------------------------------------------------------------------


Tuning: Standard

Intro
G|------------------|
D|-5------------3---|
A|----5--3--2-0-----|
E|------------------|



Verse

G|---------------4-4-3-4-5--------------7h9-7-------------7h8h9---9|
D|-5---5-------4------------------------------9-7--5--4-5-------9--|
A|---5---5-4-2--------------3-3-2-3-4-5----------------------------|
E|-----------------------------------------------------------------|
  "Ziggy Played Guitar..." 

G|---------------------|
D|-9h8h7---7---5--7----|
A|-------7---7---------|
E|---------------------|


Bridge

G|----------------------------------------|
D|-7-7-7-7-7--5-5-5-5-5--3-2-3-2-3-2-3--5-|  x3
A|----------------------------------------|
E|----------------------------------------|
  "So where were the Spiders.."


G|-----7-7-7-5-------------------|
D|---7---------7-5-------------4-|
A|-5---------------7-7-7-7-7-7---|
E|-------------------------------|
 "When the Kids had killed the man..."

Order:

Intro  x 4
Verse  x 2
Bridge x 1
Intro  x 2
Verse  x 1
Bridge x 1
Intro  x 2

See! Easy! ^.^
            
Submit corrections

↑ Back to top | Tablatures and chords for acoustic guitar and electric guitar, ukulele, drums are parodies/interpretations of the original songs. You may use it for private study, scholarship, research or language learning purposes only