» » »

David Bowie - Moonage Daydream Bass

Artists:  A B C D E F G H I J K L M N O P Q R S T U V W X Y Z # 

Moonage Daydream Bass

(ver. 1) Click to play this song!
David Bowie
 Rating:
4/5 (4 votes)

 Moonage Daydream lessons Tabs too difficult? Try these video lessons and learn fast
 
                David Bowie - Moonage Daydream - The Rise and Fall of Ziggy Stardust
Bass tab, standard tuning.

Intro
G|----------------|----------------|
D|----------------|----------------|
A|-5--5-5---------|-9--9-9-------9\|
E|----------------|----------------|

Verse
G|----------------|-------------|------------------------|
D|----------------|-------------|----------------------7-|
A|--------------56|7--7---5-7-79|10---10---9-10-101010--7|
E|-7--07-765-55---|--7---7---7--|---10---10--------------|

G|---------------|----------------|----------------|----------------|
D|---------------|----------------|----------------|--------------57|
A|5--5--5--5--/10|9-99--7-9-9-9---|--------------56|-7--7---5-7-7---|
E|--5-----5------|-----9--------9-|-7--07-765-55---|---7---7---7----|

Chorus
G|-----------------|-------------------|
D|-9-7-5-----------|---------------5h7-|
A|-------5-9-7---5-|-7-77---5-7-77-----|
E|-------------7---|------7------------| x2

G|-----------------|-------------------|--------------|----------------|
D|-9-7-5-----------|-----------------.-|..............|................|
A|-------5-9-7---5-|-7-77---5-7-77-765-|55555555555555|7777777777777777|
E|-------------7---|------7----------.-|..............|................|

Intro 2
G|----------------|----------------|
D|----------------|----------------|
A|-5--5-5------5h7|-9--9-9-----9---|
E|----------------|--------------9-|

Verse

Chorus

Bridge
G|----------------|----------------|-------------------|----------------|
D|-9--9-----9-9-9\|-7--7-------7-7-|-------------------|----------------|
A|---9--7h9--9-9--|---7--5h7----7-0|-10---10--10--10---|9-99999999999999|
E|----------------|----------------|----10------10---10|-9--------------| x2

Chorus x2

Imrov around the Bridge for guitar solo into fade out, have some fun with it.


Legend:
. = staccato note
\ = slide down
/ = slide up
h = hammer-on
            
Submit corrections


        Moonage Daydream lessons Hard to play? Try these video lessons and learn fast Moonage Daydream lessons
        
↑ Back to top | Tablatures and chords for acoustic guitar and electric guitar, ukulele, drums are parodies/interpretations of the original songs. You may use it for private study, scholarship, research or language learning purposes only