» » »

David Bowie - Life On Mars Tabs

Artists:  A B C D E F G H I J K L M N O P Q R S T U V W X Y Z # 

Life On Mars Tabs

(ver. 2) Click to play this song!
David Bowie
 Rating:
4.3/5 (18 votes)

 Life On Mars lessons Tabs too difficult? Try these video lessons and learn fast
 
                  00:00
e|---------5-------5h6--5----------|-------5-------5h6-5----------|
B|---------6----6---------8----6p5-|--(6)--6---6h8-------8-----7\-|
G|---------------------------5---5-|------------------------------|
D|-----7---------------------------|-------------------------7----|
A|-8---------8p5---7---------------|6--------6-----5--------------|
E|---------------------------------|------------------------------|

e|-3-----------3--6h8-6-5----------|6--------------------8----------------|
B|---------3------------------8----|--------8---8/10--11---11-10-----11\--|
G|-----3-----3--------------7---0--|----7-----7-------------------------0-|
D|-5-------------------------------|--------------------------------------|
A|----------------8----------------|7-------------------------------------|
E|---------------------------------|------------------8------------8------|

  00:17
e|-5--------5------8-6----5-|-8----8--5-m--8/10-8-6-----5-|-6----6--6/---------10-8----6-|
B|-------6--5--8---8-6----5-|-8----8--5h6-------8-6-----5-|-6----6--6/--10h11--10-8----6-|
G|--------------------------|-----------------------------|------------------------------|
D|----7---------------------|--------------0----------0---|-5-----5----------------------|
A|-8------8----7--------7---|-6-----6---------------------|-------------8------------8---|
E|--------------------------|-----------------------------|------------------------------|

e|-10-----10--8-8-8------------------|-----(4)----------------------------|
B|-10-----10--8-8-8---8---10---11----|-4---(4)-4--------------------------|
G|----------------------9----9---(0)-|-5-------5---5--------6-5---------0-|
D|-----------------------------------|-6-(6)-------6/8\6--6-----8-----6---|
A|-7--------7------------------------|-6-(6)-----6--------7---------7--\--|
E|----------------8------------------|-4----------------------------------|

  00:38
e|-1----------------------------|----------------------------------|
B|-1----------------2-----------|-6---------------6h7--6-----------|
G|---------1--1h3-5---5-3-------|-6-------6---6/--6------8-----6---|
D|-----3---------------------6\-|-6---6-----6-----7----------7---9-|
A|------------------------------|-4---------------0----------------|
E|-1--------1-----2--------2----|----------------------------------|

e|------------------------------------|-6----------------------------------------3-------|
B|-6----------------------------------|-6-------6---------3h4-3--------------3---6-------|
G|----------6--6h8-10h11-10-8-----6---|-7----------7------3-------3---5--3---3---3-------|
D|-----6------------------------6---6-|-6----------6-X----5-----5---5----3---3---3-------|
A|------------------------------------|-8--(8)-----8--X---6------------0-5-------------5-|
E|-6---------6-----7--------7---------|-6----------6---X--3--------------3-----------X---|

  00:58              
e|-------------------------------------------------|
B|-3/4-3--1--3-------1-1-1-1-1-0-1-1-1-1-1-3-1---4-|
G|-3---3--3--3-------2-2-2-2-2-2-1-1-1-1-1-1-1-----|
D|-------------------3-3-3-3-3-3-3-3-3-3-3-3-3/5---|
A|-------------------------------------------------|
E|-2----2--2-----1---------------------------------|

                         v ^ v  ^             v ^
e|-3---------3-----------6---6-----|6-------------3-----------------6----------|
B|-4h6---4p3-4--6--7---7-7---7--7--|6-----6---6---3h4-3----------3--3--6-------|
G|-5---------5--5--6-----8-6-6--6--|7---------7---3-------3---5--3--3--3-------|
D|-3---------5--7--8-------8-10-6--|8---------8-0-5-----5---5----3--3--3---0-0-|
A|-3---------3--5--6---6---6----6-0|8-----------0-6------------0-3--5--5---0-0-|
E|---------------------------------|6--6----------3--------------3-------------|

                                                                      ^ v ^ v  ^
e|------------------------------------------------3---------3-----------6---6----|
B|-3/4--3--1--3------(1-1)1-1-1-0-1-1-1-1-1-3-1---4h6---4p3-4--6--7---7-7---7--7-|
G|-3----3--3--3------(2-2)2-2-2-2-1-1-1-1-1-1-1---5---------5--5--6-----8-6-6--6-|
D|-------------------(3-3)3-3-3-3-3-3-3-3-3-3-3/5-3---------5--7--8-------8-10-6-|
A|------------------------------------------------3---------3--5--6---6---6----6-|
E|-2-----2--2-----1--------------------------------------------------------------|

  01:24
e|-------------6----------|-------------6----------|-------------3-----5----|
B|-------3--------3-------|-------3--------3-------|-------3----------------|
G|---(3)----3--------3----|---(3)----3--------3----|---(3)----3-----------3-|
D|-5--------------------5-|-4--------------------4-|-3--------------3-------|
A|------------------------|------------------------|------------------------|
E|------------------------|------------------------|------------------------|

e|-3-----------------3-----|-------------1---------|--------------5----------|
B|----3-----------3-----3\-|-------1--------1----p0|----4m--4--------4-------|
G|-------3-----3-----------|----2-----2--------2---|-----5-----5--------5----|
D|-2--------2--------------|-3---------------------|-4---------------------4-|
A|-------------------------|-----------------------|-------------------------|
E|-------------------------|-----------------------|-------------------------|

e|------------3------------|-------------7----------|-------------5----------|
B|------3--------3---------|-------6--------6-------|-------5--------5-------|
G|--(3)----3--------3------|----7-----7--------7----|----5-----5--------5----|
D|-5-------------------5---|-6--------------------6-|-7--------------------7-|
A|-------------------------|------------------------|------------------------|
E|-------------------------|------------------------|------------------------|

e|-------------6-----------|--------------6-------------------|--------------|
B|-------6--------6--------|-------6------------6-----h8------|----10--------|
G|----7-----7--------7-----|----6-----6-----------------------|----10--------|
D|-8--------------------8--|-8--------------------------------|--10----------|
A|-------------------------|----------------------------------|-8------------|
E|-------------------------|----------------------------------|--------------|


            
Submit corrections


        Life On Mars lessons Hard to play? Try these video lessons and learn fast Life On Mars lessons
        
↑ Back to top | Tablatures and chords for acoustic guitar and electric guitar, ukulele, drums are parodies/interpretations of the original songs. You may use it for private study, scholarship, research or language learning purposes only