Home » D » David Allan Coe »

David Allan Coe - The Ride Tabs

Artists:  A B C D E F G H I J K L M N O P Q R S T U V W X Y Z # 

The Ride Tabs

(ver. 2) Click to play this song!
David Allan Coe
 Rating:
4/5 (4 votes)
                David Allen Coe - The Ride (lead)


***********************************************************************

bh   =   bend & hold                        r   =   release bend

p    =   pulloff                            /   =   slide up

b    =   bend                               h   =   hammer-on

***********************************************************************


INTRO


E----------5-5----6/8---------------------8---8----------------------|
B--6---6---6-6p4--6/8-------------6---6---8bh-8r-6-6/8---------------|
G--5bh-5r-----------------8b------5bh-5r-----------7/9---------------|
D--------------------10-10--10-------------------------10-10p8-8h10--|
A-----------------------------10-----------------------10-10---------|
E--------------------------------------------------------------------|



LEAD FILL (IN CHORUS AND END OF SONG)


E------------------|
B------------------|
G---5-5p3-3-3-3/5--|
D---5-5p3-3-3-3/5--|
A--3-----3---------|
E------------------|




            
Submit corrections

↑ Back to top | Tablatures and chords for acoustic guitar and electric guitar, ukulele, drums are parodies/interpretations of the original songs. You may use it for private study, scholarship, research or language learning purposes only