Home » D » David Allan Coe »

David Allan Coe - Tennessee Whiskey Tabs

Artists:  A B C D E F G H I J K L M N O P Q R S T U V W X Y Z # 

Tennessee Whiskey Tabs

(ver. 1) Click to play this song!
David Allan Coe
Here are the licks on guitar for the first verse... the only place where the guitar fills.

dropped d tuning for the bass e string
po= pull off
/=slide
X= deaden

Axehappys intro sounds good to me so I will leave it 

I used to spend my nights out in a bar room...
e-------------------
b-------------------
g-------------------
d--0------0---------
a----0-2------------
D------------0------

Liquor was the only love I'd known...
   
e-------------------
b--5-5po3-3--2------
g-------------------
d--5-5 /4-4--2------
a-------------------
D-------------------

But you rescued me from reaching for the bottom...

e--8/10-10-10---5--5--5---
b-10/12-12-12---7--5--7---
g-------------------------
d-------------------------
a-------------------------
D-------------------------

Brought me back from being to far gone...

  
e-------------------
b-------------------
g-------------------
d--X-0----0---------
a------2------------
D-----------0-------


My telecaster is out of commission so I had to do this with an acoustic.
I hope the electric parts sound ok...
if not tell me what you think would be better?

Thanks and I hope that maybe someone finds this helpful,
Hank
            
Submit corrections

↑ Back to top | Tablatures and chords for acoustic guitar and electric guitar, ukulele, drums are parodies/interpretations of the original songs. You may use it for private study, scholarship, research or language learning purposes only