» » »

Dave Navarro - Rexall Tabs

Artists:  A B C D E F G H I J K L M N O P Q R S T U V W X Y Z # 

Rexall Tabs

(ver. 2) Click to play this song!
Dave Navarro
 Rating:
4/5 (4 votes)

 Rexall lessons Tabs too difficult? Try these video lessons and learn fast
 
                This is the correct as I can get it. I have seen Dave perform this 
live and I watched very closely.
So try this tab because if you play it live you will kick ass, 
well you will be playing it correctly!

Tuning:  Open D5 (DADAAd) Low to High

(Listen to the cd for timing)

Intro and Verses: Acoustic/Clean
D-------------------------------------I
A---0-0-0-0-0-0-0---------------------I
A---0-0-0-0-0-0-0---------------------I
D---5-5-5-4-4-2-4--5-5-5-5-5-5--------I	
A---0-0-0-0-0-0-0--5-5-5-5-5-5--------I
D---0-0-0-0-0-0-0--5-5-5-5-5-5--------I

Chorus: Distortion
         (Let these notes ring out) 
Guitar 1:
D----------------------------------I
A----------------------------------I
A----------------------------------I
D--0---3---3------0--2--1----------I
A--0---3---1------0--2--1----------I
D--0---3----------0--2--1----------I

Guitar 2:
D------------------------------------I
A------------------------------------I
A------------------------------------I
D--0--3--8------0--2--1--------------I
A--0--3--8------0--2--1--------------I
D--0--3--8------0--2--1--------------I

SOLO:  Distortion w/ Wah-wah  (this is played different part of the song, but played during the solo and it sounds just as good! I am not 100% this is correct on the solo part but it’s as close as I can figure out)

D-----------------------------------------------------------------------------I
A-----------------------------------------------------------------------------I
A--10-10-10-10/9-9-9-9/7-7-7-7/6-6-6-6/4-4-4-4/3--3--3--3---------------------I
D---x--x---x---x-x-x-x-x-x-x-x-x-x-x-x-x-x-x-x-x--x--x--x---------------------I
A--10-10-10-10/9-9-9-9/7-7-7-7/6-6-6-6/4-4-4-4/3--3--3--3---------------------I
D-----------------------------------------------------------------------------I

But there you Navarro fans go, if you have any comments please feel free to give them and if I messed up somewhere let me know!  Have fun and keep the rock music alive!  
            
Submit corrections


        Rexall lessons Hard to play? Try these video lessons and learn fast Rexall lessons
        
↑ Back to top | Tablatures and chords for acoustic guitar and electric guitar, ukulele, drums are parodies/interpretations of the original songs. You may use it for private study, scholarship, research or language learning purposes only