Home » D » Daughter »

Daughter - Voices Tabs

Artists:  A B C D E F G H I J K L M N O P Q R S T U V W X Y Z # 

Voices Tabs

(ver. 1) Click to play this song!
Daughter
[Intro]
e|---------------------------------------------------------------------------|
B|---------------------------------------------------------------------------|
G|---0--3--0----0h2--3--3--3--3--3--3--3/7-----------------------------------|
D|-----------3---------------------------------------------------------------| x3
A|--1--1--1-----1---1--1--1--1--1--1---1/5-----------------------------------|
E|---------------------------------------------------------------------------|

e|---------------------------------------------------------------------------|
B|---------------------------------------------------------------------------|
G|---0--3--0-----0h2--3--3--3--3--3--3--3--3--3------------------------------|
D|-----------3---------------------------------------------------------------|
A|--1--1--1-----1---1--1--1--1--1--1--1--1--1--------------------------------|
E|---------------------------------------------------------------------------|

[Verse]
e|---------------------------------------------------------------------------|
B|---------------------------------------------------------------------------|
G|---0--0--0--0--------------------------------------------------------------|
D|---------------3--3--3--3p0-0--0--0--0------------1--1--1--1---------------|
A|--1--1--1--1--1--1--1--1---1--1--1--1--3--3--3--3------------5--5--5--5----|
E|---------------------------------------------------------------------------|

e|-------------------------|-------------------------------------------------|
B|-------------------------|-------------------------------------------------|
G|-------------------------|--0--0--0--0-------------------------------------|
D|-------------------------|--------------3--3--3--3p0-0--0--0--0------------|
A|--3--3--3--3--3--3--3--3-|-1--1--1--1--1--1--1--1---1--1--1--1--3--3--3--3-|
E|-------------------------|-------------------------------------------------|

e|---------------------------------------------------------------------------|
B|---------------------------------------------------------------------------|
G|---------------------------------------------------------------------------|
D|-1--1--1--1/3--3--3--3/7--7--7--7--7--7--7--7--7--7------------------------|
A|---------------------------------------------------------------------------|
E|---------------------------------------------------------------------------|

[Chorus]
e|---------------------------------------------------------------------------|
B|---------------------------------------------------------------------------|
G|---0--3--0----0h2--3--3--3--3--3--3--3/7-----------------------------------|
D|-----------3---------------------------------------------------------------| x3
A|--1--1--1-----1---1--1--1--1--1--1---1/5-----------------------------------|
E|---------------------------------------------------------------------------|

e|---------------------------------------------------------------------------|
B|---------------------------------------------------------------------------|
G|---0--3--0-----0h2--3--3--3--3--3--3--3--3--3------------------------------|
D|-----------3---------------------------------------------------------------|
A|--1--1--1-----1---1--1--1--1--1--1--1--1--1--------------------------------|
E|---------------------------------------------------------------------------|

[Verse 2]
e|---------------------------------------------------------------------------|
B|---------------------------------------------------------------------------|
G|---0--0--0--0--------------------------------------------------------------|
D|---------------3--3--3--3p0-0--0--0--0------------1--1--1--1---------------|
A|--1--1--1--1--1--1--1--1---1--1--1--1--3--3--3--3------------5--5--5--5----|
E|---------------------------------------------------------------------------|

e|-------------------------|-------------------------------------------------|
B|-------------------------|-------------------------------------------------|
G|-------------------------|--0--0--0--0-------------------------------------|
D|-------------------------|--------------3--3--3--3p0-0--0--0--0------------|
A|--3--3--3--3--3--3--3--3-|-1--1--1--1--1--1--1--1---1--1--1--1--3--3--3--3-|
E|-------------------------|-------------------------------------------------|

e|---------------------------------------------------------------------------|
B|---------------------------------------------------------------------------|
G|---------------------------------------------------------------------------|
D|-1--1--1--1/3--3--3--3/7--7--7--7--7--7--7--7--7--7------------------------|
A|---------------------------------------------------------------------------|
E|---------------------------------------------------------------------------|

[Outro]
e|---------------------------------------------------------------------------|
B|---------------------------------------------------------------------------|
G|---0--3--0----0h2--3--3--3--3--3--3--3/7-----------------------------------|
D|-----------3---------------------------------------------------------------| x3
A|--1--1--1-----1---1--1--1--1--1--1---1/5-----------------------------------|
E|---------------------------------------------------------------------------|

e|---------------------------------------------------------------------------|
B|---------------------------------------------------------------------------|
G|---0--3--0-----0h2--3--3--3--3--3--3--3--3--3------------------------------|
D|-----------3---------------------------------------------------------------|
A|--1--1--1-----1---1--1--1--1--1--1--1--1--1--------------------------------|
E|---------------------------------------------------------------------------|            
Submit corrections

↑ Back to top | Tablatures and chords for acoustic guitar and electric guitar, ukulele, drums are parodies/interpretations of the original songs. You may use it for private study, scholarship, research or language learning purposes only