Home » D » Daughter »

Daughter - Smoke Tabs

Artists:  A B C D E F G H I J K L M N O P Q R S T U V W X Y Z # 

Smoke Tabs

(ver. 1) Click to play this song!
Daughter
0:30

e|------------------------------|
B|------------------------------|
G|------11------11----7---------|
D|----9-------9-----------------| x2
A|-10-------9-------------------|
E|------------------------------|

0:55

e|-(5)----------------------------------------------|
B|----------0----------------------0---2----3----5--|
G|----------------2---------------------------------|
D|-------------------4--------4---------------------| x2 (Only play (5) on the first one) 
A|--------------------------------------------------|
E|--------------------------------------------------|

    e|----------------------------|
    B|----------------------------|
GTR G|----4-6--6-4-4---7----6-6-6-|
 1  D|-5-------------7-7--4-------| 1,3
    A|----------------------------|
    E|----------------------------|

    e|----------------------------|
    B|-----------------8-8-7------|
GTR G|----------------------------|
 2  D|-----------------5-5--------| 1,3
    A|----------------------------|
    E|----------------------------|

    e|-----------------------------|
    B|-----------------------------|
GTR G|--7-7-6--6-6-2-\-6--6-6-6----|
 1  D|--5-5-5--5-5-0------7-7-7----| 2,4
    A|-----------------------------|
    E|-----------------------------|

    e|----------------------------|
    B|-----------------8-8-7------|
GTR G|----------------------------|
 2  D|-----------------5-5--------| 2,4
    A|----------------------------|
    E|----------------------------|

2:05

e|-2-2-2-2-2-|
B|-----------|
G|-----------|
D|-----------|
A|-----------|
E|-----------|

2:13

e|----------|
B|-2-2-2--3-|
G|----------|
D|----------|
A|----------|
E|----------|

2:27

e|------------|
B|-5----------|
G|----4--6--7-|
D|------------|
A|------------|
E|------------|

    e|----------------------------|
    B|----------------------------|
GTR G|----4-6--6-4-4---7----6-6-6-|
 1  D|-5-------------7-7--4-------| 1,3
    A|----------------------------|
    E|----------------------------|

    e|----------------------------|
    B|-----------------8-8-7------|
GTR G|----------------------------|
 2  D|-----------------5-5--------| 1,3
    A|----------------------------|
    E|----------------------------|

    e|----------------------------|
    B|----------------------------|
GTR G|-7-7-6--6-6-2-\-6--6-6-6----|
 1  D|-5-5-5--5-5-0------7-7-7----| 2,4
    A|----------------------------|
    E|----------------------------|

    e|----------------------------|
    B|-----------------8-8-7------|
GTR G|----------------------------|
 2  D|-----------------5-5--------| 2,4
    A|----------------------------|
    E|----------------------------|

e|---7--5--7--5--3----2--2------9--9--|
B|-3---------------3-------3-5--------|
G|------------------------------------|
D|------------------------------------| x4
A|------------------------------------|
E|------------------------------------|

e|----------------------------------------------------------|
B|-----10------8-------8-------8----------------------------|
G|---------11----11-11---11-11---11----11----11-9-11-9-11-9-|
D|-12-------------------------------12----12----------------| x1
A|----------------------------------------------------------|
E|----------------------------------------------------------|

e|-------------------------------------------------------------------|
B|-----10------8-------8-------8--------8-------8--------------------|
G|---------11----11-11---11-11---11-------11------11-----9-11-9-11-9-|
D|-12-------------------------------12-------12------12--------------| x2
A|-------------------------------------------------------------------|
E|-------------------------------------------------------------------|

e|-------------------------------------------------------/22---------|
B|-----10------8-------8-------8--------8-------8--------------------|
G|---------11----11-11---11-11---11-------11------11-----------------|
D|-12-------------------------------12-------12------12--------------| x1
A|-------------------------------------------------------------------|
E|-------------------------------------------------------------------|

e|--------------------------------------------|
B|--------------------------------7-----7-----|
G|-----7--7------6--6-----9-9-------9-----9---|
D|-4h5-------7p5------5/7-----7h9-----9-----9-| x4
A|--------------------------------------------|
E|--------------------------------------------|

            
Submit corrections

↑ Back to top | Tablatures and chords for acoustic guitar and electric guitar, ukulele, drums are parodies/interpretations of the original songs. You may use it for private study, scholarship, research or language learning purposes only