Home » D » Daughter »

Daughter - Shallows Bass

Artists:  A B C D E F G H I J K L M N O P Q R S T U V W X Y Z # 

Shallows Bass

(ver. 1) Click to play this song!
Daughter
[Chorus]
1:40
G|---------------------------|
D|---------------------------|
A|-7~--11~--9~---7~--11~--9~-|
E|---------------------------|

G|---------------------------------------------|
D|---------------------------------------------|          x8
A|-11-11-11-11-9-9-9-9-14-14-14-14-14-14-14-14-|
E|---------------------------------------------|

[Verse]
2:51
G|-----------------------------------|
D|-----------------------------------|
A|-7-7-7-7-7-7-7-11-11-11-11-9-9-9-9-|
E|-----------------------------------|

G|--------------------------------|
D|--------------------------------|
A|-7-7-7-7-4-4-4-4-11-11-11-11-9~-|
E|--------------------------------|

When the time comes
On the last day
When they start to come
Will you just
Will you run away?
Will you run away?

And let it all rain down
From the blood stained clouds
Oh come out, come out
To the sea my love,and just

[Chorus]
4:07
G|---------------------------|
D|---------------------------|
A|-7~--11~--9~---7~--11~--9~-|
E|---------------------------|

G|---------------------------------------------|
D|---------------------------------------------|          x8
A|-11-11-11-11-9-9-9-9-14-14-14-14-14-14-14-14-|
E|---------------------------------------------|

[Outro]
5:18
G|-----------------------------------|
D|-----------------------------------|
A|-7-7-7-7-7-7-7-11-11-11-11-9-9-9-9-|
E|-----------------------------------|

G|-------------------------------------|
D|-------------------------------------|           x10 Then start to fade out
A|-7-7-7-7-4-4-4-4-11-11-11-11-9-9-9-9-|
E|-------------------------------------|
            
Submit corrections

↑ Back to top | Tablatures and chords for acoustic guitar and electric guitar, ukulele, drums are parodies/interpretations of the original songs. You may use it for private study, scholarship, research or language learning purposes only