Home » D » Daughter »

Daughter - Numbers Tabs

Artists:  A B C D E F G H I J K L M N O P Q R S T U V W X Y Z # 

Numbers Tabs

(ver. 1) Click to play this song!
Daughter
[Intro]
(For the intro, let ring the last note played (4 on the G string and 6 on the G string))
e|--------------|
B|--------------|
G|-----6--2--4--|
D|--4-----------|
A|--------------|
E|--------------|

e|--------------|           e|--------------| 
B|--------------|           B|--------5-----|
G|-----6--9--6--|   (or)    G|-----6-----6--|
D|--4-----------|           D|--4-----------|
A|--------------|           A|--------------|
E|--------------|           E|--------------|
(find this one a bit easier)

[Verse]
Take the worst situation
Make a worse situation
Follow me home pretend you (here you start playing)
                            
e|--------------|
B|--------------|
G|-----6--2--4--|
D|--4-----------|
A|--------------|
E|--------------|

Found somebody to mend you
e|--------------|            
B|--------------|        
G|-----6--9--6--|
D|--4-----------|            
A|--------------|             
E|--------------|             

[Chorus]
I feel numb
I feel numb in this kingdom
I feel numb
I feel numb in this kingdom

(start playing this when she stops singing)

e|-------------------------|
B|-------------------------|
G|----6--2--4-----6--9--6--|
D|--4------------4---------|
A|-------------------------|
E|-------------------------|

[Verse]
Chemically enlaced faces
Blackout nights and tight spaces
e|----------------------------|
B|----------------------------|
G|-----11-------11------11----|
D|--12-- x8--11-- x4--9-- x4--|
A|----------------------------|
E|----------------------------|

We'll feel distant embraces   (variation at the end)

e|---------------------------------------9--------------------------------------------|
B|------------------------------10----10------10-12-10----10-------------12-----------|
G|-----11-------11------11---------11------11----------11-------13----13----13----13--|
D|--12-- x8--11-- x4--9-- x4---------------------------------14----14----------14-----|
A|------------------------------------------------------------------------------------|
E|------------------------------------------------------------------------------------|

Scratching hands around my waist, yeah
I'll wash my mouth but still taste you
e|----------------------------------------------------------------------------|
B|--------------10--------------------------10---------------------9----------|
G|-----11----11----11----11--------11----11----11----11----11---11---11---11--|
D|--12----12----------12--- x2--11----11----------11-----9----9---------9-----|
A|----------------------------------------------------------------------------|
E|----------------------------------------------------------------------------|

[Chorus]
(play this during the singing)
e|----------------------------|
B|----------------------------|
G|-----11-------11------11----|
D|--12-- x8--11-- x4--9-- x4--|
A|----------------------------|
E|----------------------------|

I feel numb
I feel numb in this kingdom
I feel numb
I feel numb in this kingdom
I feel numb
I feel numb in this kingdom
I feel numb
I feel numb in this kingdom

[Bridge]
('intro' of the bridge)
e|------------------------------------------------------------|
B|--12--12--12--12--7--7--7--7--14--14--14--14--9--9--10--10--|
G|------------------------------------------------------------| x2
D|------------------------------------------------------------|
A|------------------------------------------------------------|
E|------------------------------------------------------------|

(then same pattern during the singing)

You better, you better, you better
You better make me
Me better, me better
You better make me better
You better, you better, you better
You better make me
Me better, me better
You better make me better
You better, you better, you better
You better make me
Me better, me better
You better make me better
You better, you better, you better
You better make me
Me better, me better
You better make me better (WARNING : varation for the last line)
e|------------------------------------------------------------|
B|--12--12--12--12--7--7--7--7--14--14--14--14--17--17--17--17|
G|------------------------------------------------------------|
D|------------------------------------------------------------|
A|------------------------------------------------------------|
E|------------------------------------------------------------|

[Chorus]
(play this during the singing)
e|---------------------------|
B|---------------------------|
G|-----6--2--4------6--9--6--|
D|--4------------4-----------|
A|---------------------------|
E|---------------------------|

I feel numb, make me better
I feel numb in this kingdom
I feel numb, make me better
I feel numb in this kingdom
I feel numb in this kingdom
I feel numb in this kingdom
I feel numb in this kingdom
I feel numb in this kingdom

[Outro]
e|------------------------------------------------------------------------------------|
B|---------------------------------------9--------------------9-----------------------|
G|--11----6----6---------11----6----6---------11----6----6---------11----6----6-------|
D|--11----7---------9----11----7--------------11----7--------------11----7---------9--|
A|-------------7----7---------------7----7---------------7----7---------------7----7--|
E|------------------------------------------------------------------------------------|            
Submit corrections

↑ Back to top | Tablatures and chords for acoustic guitar and electric guitar, ukulele, drums are parodies/interpretations of the original songs. You may use it for private study, scholarship, research or language learning purposes only