Home » D » Daughter »

Daughter - Mothers Tabs

Artists:  A B C D E F G H I J K L M N O P Q R S T U V W X Y Z # 

Mothers Tabs

(ver. 1) Click to play this song!
Daughter

Intro and verse

E|-10--6---13--5--2--13-------10--6---13--5--2--13---
B|----------------------13------------------------13-
G|---------------------------------------------------
D|---------------------------------------------------
A|---------------------------------------------------
E|---------------------------------------------------

[Verse 1]?

You will grow all you need to grow inside my spine, ?And then take what you need to take, what's yours is mine
E|-------10--6---13--5--2--13------------------------------10--6---13--5--2--13------
B|---------------------------13------------------------------------------------13----
G|-----------------------------------------------------------------------------------
D|-----------------------------------------------------------------------------------
A|-----------------------------------------------------------------------------------
E|-----------------------------------------------------------------------------------

?And then just give all you want of it to some new thing, ?I'll stay here, the provider of that constant sting
E|-------10--6---13--5--2--13------------------------------10--6---13--5--2--13------
B|---------------------------13------------------------------------------------13----
G|-----------------------------------------------------------------------------------
D|-----------------------------------------------------------------------------------
A|-----------------------------------------------------------------------------------
E|-----------------------------------------------------------------------------------

They call love                     They call love
   D         Bm      F#m     Esus4              D         Bm      F#m     Esus4
E|-----------------------------------------------------------------------------------
B|-12--12/7--7--7/10--5--5/7--8--7-------------12--12/7--7--7/10--5--5/7--8--7-------
G|-----------------------------------------------------------------------------------
D|-----------------------------------------------------------------------------------
A|-----------------------------------------------------------------------------------
E|-----------------------------------------------------------------------------------

You will drain all you need to drain out of me?, All the colors have washed away, no more rosy sheen?
E|-------10--6---13--5--2--13------------------------------10--6---13--5--2--13------
B|---------------------------13------------------------------------------------13----
G|-----------------------------------------------------------------------------------
D|-----------------------------------------------------------------------------------
A|-----------------------------------------------------------------------------------
E|-----------------------------------------------------------------------------------

Not just a pale isolated shallow water place?, Oh what a place 
E|-------10--6---13--5--2--13------------------------------10--6---13--5--2--13------
B|---------------------------13------------------------------------------------13----
G|-----------------------------------------------------------------------------------
D|-----------------------------------------------------------------------------------
A|-----------------------------------------------------------------------------------
E|-----------------------------------------------------------------------------------

I call myself                        ?I call myself
   D         Bm      F#m     Esus4              D         Bm      F#m     Esus4
E|-----------------------------------------------------------------------------------
B|-12--12/7--7--7/10--5--5/7--8--7-------------12--12/7--7--7/10--5--5/7--8--7-------
G|-----------------------------------------------------------------------------------
D|-----------------------------------------------------------------------------------
A|-----------------------------------------------------------------------------------
E|-----------------------------------------------------------------------------------

Oh love all you need to love before it goes?, When your face becomes a stranger's I don't know?
E|-------10--6---13--5--2--13------------------------------10--6---13--5--2--13------
B|---------------------------13------------------------------------------------13----
G|-----------------------------------------------------------------------------------
D|-----------------------------------------------------------------------------------
A|-----------------------------------------------------------------------------------
E|-----------------------------------------------------------------------------------

You will never remember who I was to you?, Carried in the womb?
E|-------10--6---13--5--2--13------------------------------10--6---13--5--2--13------
B|---------------------------13------------------------------------------------13----
G|-----------------------------------------------------------------------------------
D|-----------------------------------------------------------------------------------
A|-----------------------------------------------------------------------------------
E|-----------------------------------------------------------------------------------


I'm called mother                      ?I'm called mother
   D         Bm      F#m     Esus4              D         Bm      F#m     Esus4
E|-----------------------------------------------------------------------------------
B|-12--12/7--7--7/10--5--5/7--8--7-------------12--12/7--7--7/10--5--5/7--8--7-------
G|-----------------------------------------------------------------------------------
D|-----------------------------------------------------------------------------------
A|-----------------------------------------------------------------------------------
E|-----------------------------------------------------------------------------------

They're called home?                 They're called home
   D         Bm      F#m     Esus4              D         Bm      F#m     Esus4
E|-----------------------------------------------------------------------------------
B|-12--12/7--7--7/10--5--5/7--8--7-------------12--12/7--7--7/10--5--5/7--8--7-------
G|-----------------------------------------------------------------------------------
D|-----------------------------------------------------------------------------------
A|-----------------------------------------------------------------------------------
E|-----------------------------------------------------------------------------------

They're called                  They're called
E|-7------10----9------14-----9------7-----------
B|--------------------------------------10-10----
G|-----------------------------------------------
D|-----------------------------------------------
A|-----------------------------------------------
E|-----------------------------------------------

         Called Called          Mothers Mothers
E|-7------10----9------14-----9------7-----------
B|--------------------------------------10-10----
G|-----------------------------------------------
D|-----------------------------------------------
A|-----------------------------------------------
E|-----------------------------------------------

Esus4                            Bm                      D       
Give all you need to give? and sometimes they won't take what they need to take
       F#m                 Esus4                 Bm                    D
?The strangest chemical reaction? Inside of her brain, no she's not the same
                   F#m                     F#m
?No she's not the same? No she's not the same

Outro

Esus4 - Bm - D - F#m

            
Submit corrections

↑ Back to top | Tablatures and chords for acoustic guitar and electric guitar, ukulele, drums are parodies/interpretations of the original songs. You may use it for private study, scholarship, research or language learning purposes only