Home » D » Daughter »

Daughter - Flaws Tabs

Artists:  A B C D E F G H I J K L M N O P Q R S T U V W X Y Z # 

Flaws Tabs

(ver. 1) Click to play this song!
Daughter

[Intro]

e|----------------|----------------|---------------|---------------|-------10----|------10----|
B|o-----12-15-12~-|------12-15-12--|-----12-13-12~-|-----12-13-12--|-----12--12~-|----12--12--|
G|----12----------|---12---------12|---12----------|---12--------12|---12--------|--12------12|
D|o-14------------|-14-------------|-12------------|-12------------|-10----------|10----------|
A|----------------|----------------|---------------|---------------|-------------|------------|
E|----------------|----------------|---------------|---------------|-------------|------------|

e|----------------|-----------------|
B|----12-12-12-10-|----------------o|
G|----12-12-12-11-|---12-12-12-11---|
D|----------------|---14-14-14-12--o|
A|-12-------------|12---------------|
E|----------------|-----------------| 

e|---------------|----------------|---------------|---------------|-------10----|-------10----|
B|-----12-15-12~-|------12-15-12--|-----12-13-12~-|-----12-13-12--|-----12--12~-|-----12--12--|
G|---12----------|---12---------12|---12----------|---12--------12|---12--------|---12------12|
D|-14------------|-14-------------|-12------------|-12------------|-10----------|-10----------|
A|---------------|----------------|---------------|---------------|-------------|-------------|
E|---------------|----------------|---------------|---------------|-------------|-------------|

e|---------------|----------------|--------------|--------|-------|---------|
B|----12-12-12-10|----------------|-12-10-12-----|-10-----|-8-----|-10------|
G|----12-12-12-11|-----12-12-12-11|--------9-----|--9-----|-9-----|--9------|
D|---------------|-----14-14-14-12|--------9-x16-|--9-x16-|-7-x16-|--7-x16--|
A|-12------------|--12------------|--------------|--------|-------|---------|
E|---------------|----------------|--------------|--------|-------|---------|  chords x2

e|-----------------|-----------------|-----------------|-----------------|
B|-13-12-----------|-13-12-----------|-13-12-----------|-13-12-----------|
G|-------12-11-9-7-|-------12-11-9-7-|-------12-14-9-7-|-------12-14-9-7-|
D|-----------------|-----------------|-----------------|-----------------|
A|-----------------|-----------------|-----------------|-----------------|
E|-----------------|-----------------|-----------------|-----------------| x4 end            
Submit corrections

↑ Back to top | Tablatures and chords for acoustic guitar and electric guitar, ukulele, drums are parodies/interpretations of the original songs. You may use it for private study, scholarship, research or language learning purposes only