» » »

Darkness - Is It Just Me Tabs

Artists:  A B C D E F G H I J K L M N O P Q R S T U V W X Y Z # 

Is It Just Me Tabs

(ver. 3) Click to play this song!
Darkness
 Rating:
4/5 (4 votes)

 Is It Just Me lessons Tabs too difficult? Try these video lessons and learn fast
 
                IS IT JUST ME?
Off the new album 'One Way Ticket To Hell ...And Back'

NOTE: Use capo on 1st fret.

Intro
e|--------------------------------------------------------------------|
B|--------------------------------------------------------------------|
G|----------------------------------2-2---2-2---2-2---2-2---2-2-------|
D|-2-2---2-2---2-2---2-2---2-2------2-2---2-2---2-2---2-2---2-2-------|
A|-2-2---2-2---2-2---2-2---2-2------0-0-4-0-0-5-0-0-4-0-0-5-0-0-4-0---|
E|-0-0-4-0-0-5-0-0-4-0-0-5-0-0-4-0------------------------------------| 2x


Verse
e|--------------------------------------------------------------------|
B|--------------------------------------------------------------------|
G|----------------------------------2-2---2-2---2-2---2-2---2-2-------|
D|-2-2---2-2---2-2---2-2---2-2------2-2---2-2---2-2---2-2---2-2-------|
A|-2-2---2-2---2-2---2-2---2-2------0-0-4-0-0-5-0-0-4-0-0-5-0-0-4-0---|
E|-0-0-4-0-0-5-0-0-4-0-0-5-0-0-4-0------------------------------------| 2x

e|--------------------------------------------------------------------|
B|-3-3---3-3---3-3---3-3---3-3----------------------------------------|
G|-2-2---2-2---2-2---2-2---2-2----------------------------------------|
D|-0-0-4-0-0-5-0-0-4-0-0-5-0-0-4-0--2-2---2-2---2-2---2-2---2-2-------|
A|----------------------------------2-2---2-2---2-2---2-2---2-2-------|
E|----------------------------------0-0-4-0-0-5-0-0-4-0-0-5-0-0-4-0---|


Bridge
e|---------------------------------------------------------------------|
B|---------------------------------------------------------------------|
G|---------------------------------------------------------------------|
D|--4-4-2-4-4-2-4-2--6-6-4-6-6-4-6-4--7v7v7v7v7v7v7v7v7v7v7v7v7v7v7v\--|
A|--4-4-2-4-4-2-4-2--6-6-4-6-6-4-6-4-----------------------------------|
E|---------------------------------------------------------------------|


Chorus
e|-------------------------------------------------|
B|-------------------------------------------------|
G|------------2-2------------------2---2---2-------|
D|--4-4/6-6---2-2--2-2---4-4/6-6---2---2---2-------|
A|--2-2/4-4---0-0--2-2---2-2/4-4---0---0---0-------|
E|-----------------0-0--------------4p0-4p0-4p0----|

e|----------------------------------------------------------------------|
B|-----------------------3-3---3-3---3-3---3-3---3-3--------------------|
G|------------2-2--------2-2---2-2---2-2---2-2---2-2------2-2-2-2-2-2---|
D|--4-4/6-6---2-2--2-2---0-0-4-0-0-5-0-0-4-0-0-5-0-0-4-0--2-2-2-2-2-2---|
A|--2-2/4-4---0-0--2-2------------------------------------0-0-0-0-0-0---|
E|-----------------0-0--------------------------------------------------|

INTRO 1x

VERSE

BRIDGE

Chorus
e|-------------------------------------------------|
B|-------------------------------------------------|
G|------------2-2------------------2---2---2-------|
D|--4-4/6-6---2-2--2-2---4-4/6-6---2---2---2-------|
A|--2-2/4-4---0-0--2-2---2-2/4-4---0---0---0-------|
E|-----------------0-0--------------4p0-4p0-4p0----|

e|---------------------------------------------------------------------|
B|---------------------------------------------------------------------|
G|------------2-2------------------------------------------------------|
D|--4-4/6-6---2-2--2-2----------------------4-4-4--6-6-6--7-7-7-7-7-7--|
A|--2-2/4-4---0-0--2-2---4-4-4--6-6-6--7-7--2-2-2--4-4-4--5-5-5-5-5-5--|
E|-----------------0-0---2-2-2--4-4-4--5-5-----------------------------|


Solo
e|--------------------------------------------------------------------|
B|--------------------------------------------------------------------|
G|----------------------------------2-2-2-2-2-2-2---------------------|
D|--6-6-6-6-6-6-6-6-6-6-6-6-6-6-6---2-2-2-2-2-2-2---------------------|
A|--4-4-4-4-4-4-4-4-4-4-4-4-4-4-4---0-0-0-0-0-0-0--4-4-4-4-4-4-4------|
E|-------------------------------------------------2-2-2-2-2-2-2------| 4x

e|--------------------------------------------------------------------|
B|-3-3---3-3---3-3---3-3---3-3----------------------------------------|
G|-2-2---2-2---2-2---2-2---2-2----------------------------------------|
D|-0-0-4-0-0-5-0-0-4-0-0-5-0-0-4-0--2-2---2-2---2-2---2-2---2-2-------|
A|----------------------------------2-2---2-2---2-2---2-2---2-2-------|
E|----------------------------------0-0-4-0-0-5-0-0-4-0-0-5-0-0-4-0---|

BRIDGE

Chorus
e|-------------------------------------------------|
B|-------------------------------------------------|
G|------------2-2------------------2---2---2-------|
D|--4-4/6-6---2-2--2-2---4-4/6-6---2---2---2-------|
A|--2-2/4-4---0-0--2-2---2-2/4-4---0---0---0-------|
E|-----------------0-0--------------4p0-4p0-4p0----| 2x

e|------------------------------------------------------------------|
B|-----------------------3-3---3-3---3-3---3-3----------------------|
G|------------2-2--------2-2---2-2---2-2---2-2---------2-2-2-2-2-2--|
D|--4-4/6-6---2-2--2-2---0-0-4-0-0-5-0-0-4-0-0---------2-2-2-2-2-2--|
A|--2-2/4-4---0-0--2-2-------------------------4v-2v---0-0-0-0-0-0--|
E|-----------------0-0----------------------------------------------|

          THE END!
e|-------------x--|
B|-------------x--|
G|--2----2-----x--|
D|--2----2-----2--|
A|--0----0-----2--|
E|---4p0--4p0--0--|


Listen to the song for timing, etc..
            
Submit corrections


        Is It Just Me lessons Hard to play? Try these video lessons and learn fast Is It Just Me lessons
        
↑ Back to top | Tablatures and chords for acoustic guitar and electric guitar, ukulele, drums are parodies/interpretations of the original songs. You may use it for private study, scholarship, research or language learning purposes only