» » »

Darkness - Is It Just Me Tabs

Artists:  A B C D E F G H I J K L M N O P Q R S T U V W X Y Z # 

Is It Just Me Tabs

(ver. 2) Click to play this song!
Darkness
 Rating:
4/5 (4 votes)

 Is It Just Me lessons Tabs too difficult? Try these video lessons and learn fast
 
                This the corrected version as Dan Played it live



Capo on first fret. 

Intro

E-----------------------------------------------------------------------|
B-----------------------------------------------------------------------|
G-----------------------------------------------------------------------|
D--------------------------------------3-3-----3-3-----3-3-----3-3------|
A--3-3-----3-3-----3-3-----3-3---------1-1--5--1-1--6--1-1--5--1-1--6---|
E--1-1--5--1-1--6--1-1--5--1-1--6---------------------------------------|

x2

Verse

E-----------------------------------------------------------------------|
B-----------------------------------------------------------------------|
G-----------------------------------------------------------------------|
D--------------------------------------3-3-----3-3-----3-3-----3-3------|
A--3-3-----3-3-----3-3-----3-3---------1-1--5--1-1--6--1-1--5--1-1--6---|
E--1-1--5--1-1--6--1-1--5--1-1--6---------------------------------------|

x2

E----------------------------------------------------------------------|
B--4-4-----4-4-----4-4-----4-4-----------------------------------------|
G--3-3-----3-3-----3-3-----3-3-----------------------------------------|
D--1-1--5--1-1--6--1-1--5--1-1--6--------------------------------------|
A-------------------------------------3-3-----3-3-----3-3-----3-3------|
E-------------------------------------1-1--5--1-1--6--1-1--5--1-1--6---|

Pre Chorus

E----------------------------------------------------------------|
B----------------------------------------------------------------|
G------------------------------8v-8v-8v-8v-8v-8v-8v-8v-8v-8v-----|
D--555-33-555---777-55-777---------------------------------------|
A--555-33-555---777-55-777---------------------------------------|
E--333-11-333---555-33-555---------------------------------------|

Chorus

E-------------------------------------------------------------|
B-------------------------------------------------------------|
G----------33-------------------------------------------------|
D--55/77---33--------55/77----3---------3---------3-----------|
A--33/55---11---33---33/55----1-----3---1-----3---1-----3-----|
E---------------11---------------5--1------5-1-------5--1-----|


Solo Rhythm

e-----------------------------------------
B-----------------------------------------
G-----------------------------------------
D--7-7-7-7-7-7-7-7---3-3-3-3-3-3---5555---
A--5-5-5-5-5-5-5-5---1-1-1-1-1-1---5555---
E----------------------------------3333---

x2

Enjoy
            
Submit corrections


        Is It Just Me lessons Hard to play? Try these video lessons and learn fast Is It Just Me lessons
        
↑ Back to top | Tablatures and chords for acoustic guitar and electric guitar, ukulele, drums are parodies/interpretations of the original songs. You may use it for private study, scholarship, research or language learning purposes only